Lamb Of God - As The Palaces Burn Chords & Tabs

 

As The Palaces Burn Chords & Tabs

Lamb Of God Chords & Tabs

Version: 1 Type: Bass Tab 0 ratings
1 star 2 stars 3 stars 4 stars 5 stars
comments

As The Palaces Burn Bass Tab

Drop D tuning

Intro x3
G|-----------------------------------------|
D|-----------------------------------------|
A|-----------------------------------------|
D|-4--0h4--0h5-3-0-4--0h5--0h5--0h1-0h1(~)-|

Intro-2
G|---------------------------------------------|
D|---------------------------------------------|
A|-------6-7-------6-5-6-------6-7-0-8-7-0-----|
D|-5-5-5-----5-5-5-------6-6-6-------------0-0-|

Verse x3
G|-----------------------------------------|
D|-----------------------------------------|
A|-----------------------------------------|
D|-4--0h4--0h5-3-0-4--0h5--0h5--0h1-0h1(~)-|

Verse-2
G|---------------------------------------------|
D|---------------------------------------------|
A|-------6-7-------6-5-6-------6-7-0-8-7-0-----|
D|-5-5-5-----5-5-5-------6-6-6-------------0-0-|

Chorus x2
G|----------------------------------------------------------|
D|-----4-5---3-2---0-3-4-5-----------4-5---3-2----3-3-------|
A|-0-0-----0-----0---------5-4-3-0-0-----0------2-----------|
D|----------------------------------------------------0-0-0-|

Bridge x2
G|----------------------------------------------------------|
D|----------------------------------------------------------|
A|-------8p7-------10p9-------12p11-------14p13-------13p12-|
D|-0-0-0-----0-0-0------0-0-0-------0-0-0-------0-0-0-------|

------------------------------------------|
------------------------------------------|
-------14p13-------15p14-------14(p13)(~)-|
-0-0-0-------0-0-0-------0-0-0------------|
[ Tab from: http://www.guitartabs.cc/tabs/l/lamb_of_god/as_the_palaces_burn_btab.html ]
Bridge-2 x4
G|---------------------------------------------|
D|---------------------------------------------|
A|-------8p7-------9p8h9-------10p9-10-10-0-11-|
D|-0-0-0-----0-0-0-------0-0-0-----------------|

Bridge-3 x4
G|----------------------------|
D|----------------------------|
A|----------------------------|
D|-10/1-1--3--5--10/1-1--5--3-|

Verse Add On
G|-------------------|
D|-------------------|
A|-------------------|
D|-0h5--0h5--0h1-0h1-|

Verse x2
G|-----------------------------------------|
D|-----------------------------------------|
A|-----------------------------------------|
D|-4--0h4--0h5-3-0-4--0h5--0h5--0h1-0h1(~)-|

Intro-2
G|---------------------------------------------|
D|---------------------------------------------|
A|-------6-7-------6-5-6-------6-7-0-8-7-0-----|
D|-5-5-5-----5-5-5-------6-6-6-------------0-0-|

Verse x3
G|-----------------------------------------|
D|-----------------------------------------|
A|-----------------------------------------|
D|-4--0h4--0h5-3-0-4--0h5--0h5--0h1-0h1(~)-|

Verse-2
G|---------------------------------------------|
D|---------------------------------------------|
A|-------6-7-------6-5-6-------6-7-0-8-7-0-----|
D|-5-5-5-----5-5-5-------6-6-6-------------0-0-|

Chorus x2
G|----------------------------------------------------------|
D|-----4-5---3-2---0-3-4-5-----------4-5---3-2----3-3-------|
A|-0-0-----0-----0---------5-4-3-0-0-----0------2-----------|
D|----------------------------------------------------0-0-0-|

Outro x4
G|-------------------------------|
D|-------4-5---3-2---------------|
A|-0-0-0-----0-----0-3-2---------|
D|-----------------------0-0-0-0-|
Comments