Lamb Of God - An Extra Nail For Your Coffin Chords & Tabs

 

An Extra Nail For Your Coffin Chords & Tabs

Lamb Of God Chords & Tabs

Version: 1 Type: Tab

An Extra Nail For Your Coffin Tab

Song: An Extra Nail For Your Coffin
By: Lamb of God


... the easier part of the song. This may not be exact but it'll help you get the right idea.
[ Tab from: http://www.guitartabs.cc/tabs/l/lamb_of_god/an_extra_nail_for_your_coffin_tab.html ]
E------------------------------------------------------|
B------------------------------------------------------|
G------------------------------------------------------|
D-----7-7-8---------7-7-8----------------------------0-|
A-8-8-------8-8-8-8-------8-0-0-8-10-7-0-0-7-8-5-5-7---|
D-8-8-------8-8-8-8---------0-0--------0-0-------------|


E----------------------------------------------------------|
B----------------------------------------------------------|
G----------------------------------------------------------|
D-----7-7-8---------7-7-8-------7-7-8----------------------|
A-8-8-------8-8-8-8-------8-0-0-------0-0-0-0-10-----------|
D-8-8-------8-8-8-8---------0-0-------0-0-0-0----0-0-0-0-8-|