Lamb Of God - An Extra Nail For Your Coffin Chords & Tabs

 

An Extra Nail For Your Coffin Chords & Tabs

Lamb Of God Chords & Tabs

Version: 1 Type: Bass Tab

An Extra Nail For Your Coffin Bass Tab

   
Lamb Of God
An Extra Nail For Your Coffin
Tuning D A D G (drop D)

Well here it is, the 2nd ever tab by meee! This is my interpretation of the bonus
track from the 2004 Ashes of the Wake album, not sure if many people have this track
but I tabbed it anyway. As with tab number one I've probably misinterpreted some riffs
along the way so any corrections will be much appreciated!

(Intro) Main riff x4
G|--------------------------------------------------|
D|--------------------------------------------------|
A|--------------------------------------------------|
D|-2-2-2-2-2-2-2-2-3-2-2-2--2--2-2-2-2-3-2--2-2-2-2-|

|-----------------------------------------------|
|-----------------------------------------------|
|-----------------------------------------------|
|-2-2-2-2-2-2-2-2-3-2-2-2--2--2-2-2-2-5-4-2-3---|

Chorus riff (0:26) x2 (not sure on the end bit)
G|-------------------------------------------------------------------------| 
D|-------------------------------------------------------------------------|
A|-------------------------------------------------------------------------|
D|-8-7-7-7-7-8-7-7-7-7-8-7-7-7-7-8-7-7-7-7-8-7-7-7-7-8-7-7-7-7-12-10-9-10--|

Main riff x2

Fill 1 (0:45) x2
G|----------------------------------|
D|----------------------------------|
A|----------------------------------|
D|-2--2--2-2-2--2--2--2-2-2--2--3b--|

Main riff x1

Fill 2 (0:58)
G|----------------------------------||--------------------------------------|
D|----------------------------------||--------------------------------------|
A|----------------------------------||--------------------------------------|
D|-2--2--2-2-2--2--2--2-2-2--2--3b--||-2--2--2-2-2--2--2--2-2-2--2-9b-0-5b--|
[ Tab from: http://www.guitartabs.cc/tabs/l/lamb_of_god/an_extra_nail_for_your_coffin_btab.html ]
|--------------------------------------| x2
|--------------------------------------|
|--------------------------------------|
|-0--0--0-0-0--0--0--0-0-0--0-9b-0-5b--|

|----------------------------------||--------------------------------------|
|----------------------------------||--------------------------------------|
|----------------------------------||--------------------------------------|
|-0--0--0-0-0--0--0--0-0-0--0--3b--||-0--0--0-0-0--0--0--0-0-0--0-9b-0-5b--|

Chorus riff (1:19) x2

Main riff x2 (1:25)

Fill 2 (1:38)

Fill 3 (1:58)			      x2
G|--------------------------------------||----------------------------------|
D|--------------------------------------||----------------------------------|
A|--------------------------------------||----------------------------------|
D|-0--0--0-0-0--0--0--0-0-0--0-9b-0-5b--||-0--0--0-0-0--0--0--0-0-0--0--3b--|

			 	    x3
|--------------------------------------||----------------------------------|
|--------------------------------------||----------------------------------|
|--------------------------------------||----------------------------------|
|-0--0--0-0-0--0--0--0-0-0--0-9b-0-5b--||-0--0--0-0-0--0--0--0-0-0--0--3b--|

|--------------------------------------|   Fill 4 (2:24)
|--------------------------------------|   |------------|
|--------------------------------------|   |------------|
|-0--0--0-0-0--0--0--0-0-0--0-9b-0-5b--|   |------------|
					   |-0~-------0-|

Main outro riff: play till end (not 100% certain on this riff)
G|------------------------------------------------------|
D|------------------------------------------------------|
A|------------------------------------------------------|
D|-7--5-7--0-0-0-5--7-5-3-0--0--3-5-3--0-3--5-3--0-3-5--| 
At end of song, let last note ring