Lamb Of God - Again We Rise Chords & Tabs

 

Lamb Of God Chords & Tabs

Version: 3 Type: Tab 0 ratings
1 star 2 stars 3 stars 4 stars 5 stars
comments

Again We Rise Tab

~By Jordan Bavis~


Band: Lamb Of God
Song: (intro) Again We Rise
Album: Sacrament

Fast = 146 bpm
Tuning= DADGBE

* = Palm Mute (P.M.)

INTRO
------------------------------------------------|
------------------------------------------------|
--------15-15------15-15-------15-15-----15-15--|  [x2]
------------------------------------------------|
------------------------------------------------|
-----17---------17---------17---------17--------|


------------------------------------------------|
------------------------------------------------|
--------14-14------14-14-------14-14-----14-14/-|
------------------------------------------------|
------------------------------------------------|
-----17---------17---------17---------17--------|


-------------------------------------------|
/17-17-17-17-17-17-18-18-18-18-18-18-18----|
-------------------------------------------|
-------------------------------------------|
-------------------------------------------|
-------------------------------------------|

   [Rise_________________________________]
-------------------------------------------|
-------------------------------------------|
-------------------------------------------|
---0---------------------------------------|
---0---------------------------------------|
---0---------------------------------------|


--------------------------------------------|
--------------------------------------------|
--------------------------------------------|
--------------------------------------------|
0--0--0-------------------------------------|
0--0--0--------------------------------/10\-|
*  *  *
[ Tab from: http://www.guitartabs.cc/tabs/l/lamb_of_god/again_we_rise_tab_ver_3.html ]
-------------------------------------------|
-------------------------------------------|
-------------------------------------------|
-------------------------------------------|  [x2]
-------------------------------------------|
12--15--12--0--0--0--12--15--12--0--0--0---|
            *  *  *              *  *  *

-------------------------------------------|
-------------------------------------------|
-------------------------------------------|
-------------------------------------------|
-------------------------------------------|
11--15--11--0--0--0--11--15--11--0--0--0---|
            *  *  *              *  *  *

-------------------------------------------|
-------------------------------------------|
-------------------------------------------|
-------------------------------------------|
-------------------------------------------|
13--17--13--0--0--0--13--17--13--0--0--0---|
            *  *  *              *  *  *

-------------------------------------------|
-------------------------------------------|
-------------------------------------------|
-------------------------------------------|   [x2]
-------------------------------------------|
12--15--12--0--0--0--12--15--12--0--0--0---|
            *  *  *              *  *  *

--------------------------------------------|
--------------------------------------------|
--------------------------------------------|
--------------------------------------------|
--------------------------------------------|
11--15--11--0--0--0--11--15--11--0--0--0----|
            *  *  *              *  *  *

-------------------------------------------|
-------------------------------------------|
-------------------------------------------|
----7-5-4-------8-7------------------------|
-----------5-4------5-6/9\6--10------------|
--4----------------------------------------|
  *        * *
Comments