Lamb Of God - 11th Hour Chords & Tabs

 

11th Hour Chords & Tabs

Lamb Of God Chords & Tabs

Version: 4 Type: Tab 0 ratings
1 star 2 stars 3 stars 4 stars 5 stars
comments

11th Hour Tab

Artist: Lamb Of God
Album: As The Palaces Burn
Song: 11th hour
Transcribed by:Alvaro Ramirez
Email me for any comments or corrections:lazyguitarist@musician.net
Tune guitars to Drop D (DADGBE)


.  - palm mute           /  - slide up to     ah - Artificial harmonics
\  - slide down to       ~  - vibrato
h  - hammer on           b  - Bend
p  - pull off            Suffixes for bend
t  - tap                 f  - full bend    h - half bend
ph - pinched harmonic    q  - quarter bend t - tap bend
*  - see comment         ^  - Hold bend    r release bend
x  - Staccato            ~  - vibrato bend
,  - slight palm mute    () - ghost note, sustained note
"  - tremolo note        <> - Trill


Intro guitar 1
|-------------------------------------------------------------------------|
|-------------------------------------------------------------------------|
|-------------------------------------------------------------------------|
|-7h6p-8h7---------7h6p-8h7---------7h6p-8h7---------7h6p-8h7---7-6---6-5-|2x
|-------------------------------------------------------------8-----7-----|
|-------------------------------------------------------------------------|
|
|     guitar 2
|-------------------------------------------------------------------------|
|-------------------------------------------------------------------------|
|-------------------------------------------------------------------------|
|-------------------------------------------------------------------------|2x
|-------------------------------------------------------------------------|
|-0-0--0-0-0"00000-0-0--0-0-0"00000-0-0--0-0-0"00000-0--0-0-0-0-0-0-0-0-0-|
  . .  . .   ..... . .  . .   ..... . .  . .   ..... .  . . . . . . . . .

Outro intro both guitars
|-------------------------|
|-------------------------|
|-------------------------|
|---3-2-1-------------8-7-|
|-4-------1-0---5-----6-5-|
|-------------6---6-5-----|
  . . . . . . . . . . 

Riff 1 both guitars
|-------------------------------------------------|
|-------------------------------------------------|
|-------------------------------------------------|
|---------------------------------------------8-7-|4x
|--------1-0-----------3-0-4---------0--4p5h--6-5-|
|-0-0-0--1-0--0-0-0-0--3-0-4--0-0-0--0------0-----|
  . . .       . . . .         . . .       

Outro to riff 1
|-------------------------------|
|-------------------------------|
|-------------------------------|
|-------------------------------|
|---------------------3/6---6/7-|
|-44-4444-44-33-3333--3/6-0-6/7-|
  .. .... .. .. ....

Repeat 
Riff 1 four times
outro to riff 1

Riff 2
|-------------------------------------------------5h4---5br---|
|---------4/5---------4/5-----4/5-----5/6-----5/6-----6-----6-|
|---------3/4---------3/4-----3/4-----4/5-----4/5-------------|
|-------------------------------------------------------------|
|-------------------------------------------------------------|
|-000-000-----000-000-----000-----788-----788-----------------|
  ... ...     ... ...     ...     ...     ...
Riff 3
|--------------------------------------------------------------|
|---------4/5---------4/5-----4/5-----5/6-----5/6--------------|
|---------3/4---------3/4-----3/4-----4/5-----4/5--------------|
|--------------------------------------------------7-5-----5-0-|
|------------------------------------------------------8-7-----|
|-000-000-----000-000-----000-----788-----788------------------|
  ... ...     ... ...     ...     ...     ...      . . . . . .

Repeat riff
Riff 2
Riff 3
[ Tab from: http://www.guitartabs.cc/tabs/l/lamb_of_god/11th_hour_tab_ver_4.html ]
Riff 4 guitar 1
|---------------------------------------------------------------------|
|---------------------------------------------------------------------|
|---------------------------------------------------------------------|
|---------------------------------------------------------------------|2x
|---------------------------------------------------------------------|
|-000-000-000-000-000-000-000-000-000-888-888-888-888-555-555-555-555-|
| ... ... ... ... ... ... ... ... ... ... ... ... ... ... ... ... ... |
|      guitar 2                                                       |
|---------------------------------------------------------------------|
|---------------------------------------------------------------------|
|---------------------------------------------------------------------|2x
|---------------------------------------------------------------------|
|---------6/8~------------6/8~----------------6/8~---------7/8-8-7----|
|---------------------------------------------------------------------|


Repeat 
Riff 4 guitar 1 3x

Riff 5 guitar 2 under riff 4 guitar 1
|---------------------------------------------------------------------|
|---------------------------------------------------------------------|
|---------------------------------------------------------------------|
|---------5/7~------------5/7~----------------5/7~---------7/8-8-7----|2x
|---------------------------------------------------------------------|
|---------------------------------------------------------------------|

Repeat 
Riff 2
Riff 3
Riff 2

Riff 6 both guitars 
|-------------------------|
|-------------------------|
|-------------------------|
|-7-5-----5---------5-----|
|-----8-------8-7-5---8-7-|
|-------8---7-------------|
  . . . . . . 

Riff 7 guitar 1    
|------------------------------------|-------------------------------------|
|------------------------------------|-------------------------------------|
|-----------5------------------------|-------------------------------------|
|-----7-5-----8p7h-----7-5-----------|-----5-----------------8-7-----------|
|-5-8-----8--------5-8---------------|-5-7---8-7-8-8p7h--5-7---------------|
|--------------------------05~~-06~~-|---------------------------05~~-06~~-|
|                                                                          |
|      guitar 2                                                            |
|------------------------------------|-------------------------------------|
|------------------------------------|-------------------------------------|
|------------------------------------|-------------------------------------|
|------------------------------------|-------------------------------------|
|------------------------------------|-------------------------------------|
|-000--0-0-00--0-0--0-0-0--05~~-06~~-|-888--8-8-8-8-8-8-555-5-5--05~~-06~~-|
  ...  . . ..  . .  . . .              ...  . . . . . . ... . .

Repeat 
Riff 7 guitar 1 and
Riff 7 guitar 2

Riff 8 both guitars
|------------------|
|------------------|
|------------------|
|------------------|3x
|------------------|
|-000-000-000-0000-|
  ... ... ... ....

Outro to riff 8
|----------------5-|
|----------------4-|
|------------------|
|------------------|
|------------------|
|-000-000--0-0-0---|
  ... ...  . . .

Riff 9 both guitars
|-----5-----5-----5-----5-|
|-----4-----4-----4-----4-|
|-------------------------|8x
|-------------------------|
|-------------------------|
|-000---000---000---000---|
  ...   ...   ...   ...

Riff 10 both guitars
|-----------------|  |-----------|
|-----------------|  |-----------|
|-----------------|  |-----------|
|-----------------|3x|-----------|
|-----------------|  |-----------|
|-0-0-0-0-0-0-0-0-|  |-05~~-06~~-|
  . . . . . . . .

Repeat 
Riff 10 three times

Riff 11 both guitars
|-------5-------5-------5-------5-------5-----------------|
|-------4-------4-------4-------4-------4-----------------|
|---------------------------------------------------------|
|---------------------------------------------------------|4x
|---------------------------------------------------------|
|-0-0-0---0-0-0---0-0-0---0-0-0---0-0-0---0-0-0-05~~-06~~-|
  . . .   . . .   . . .   . . .   . . .   . . . 

Ending guitar 1
|------------------|
|------------------|
|-----------5------|
|-----7-5-----8p7h-|
|-5-8-----8--------|
|------------------|
|                  |
|     guitar 2     |
|------------------|
|------------------|
|------------------|
|------------------|
|------------------|
|-00-0-0-0-0-0-0-0-|
  .. . . . . . .    


The end..
Comments