Lamb Of God - 11th Hour Chords & Tabs

 

11th Hour Chords & Tabs

Lamb Of God Chords & Tabs

Version: 1 Type: Bass Tab 0 ratings
1 star 2 stars 3 stars 4 stars 5 stars
comments

11th Hour Bass Tab

Drop D tuning

G----------------------------------------------|
D------------      speed up or slow down the 0-|s when needed
A----------------------------------------------|
D-0-0-0-0-0-0----------------------------------|

Verse 1
G-------------------------------------------------------|
D-------------------------------------------------------|  x4
A------------------------------------------5------6-5---|
D-1p0-0-0-0-1p0-4-0-0-0-1p0-4-0-0-0-1p0-4----6-5--------|

G---------------------------------------|
D---------------------------------------|
A---------------------------------------|
D-4-4-4-4-4-4--2-2-2-2-2-2--7-7-7-7-7-7-|

play Verse figure 4x


Chorus
G----------------------------------------------------|
D----------------------------------------------------|
A----------5---------5----5-----1111111-1111111-1111-|
D-000000-----000000----000---------------------------|
[ Tab from: http://www.guitartabs.cc/tabs/l/lamb_of_god/11th_hour_btab.html ]
Verse 2
G------------------------------------------------------|
D------------------------------------------------------|  x4
A------------------------------------------------------|
D-000000000000000000000000-888888888888-555555555555---|

Bridge
G-------------------------------------------------------------------|
D-------------------------------------------------------------------|
A-------------------------111111111111111111111111------------------|
D-00000000000000000000000--------------------------5555555555555555-|

For the part where Randy sings "Take as Needed for the Pain...", play open D's
and follow the bass pedal as you did in the intro

Outro
G-----------------------------------------|
D-----------------------------------------|  x8
A-----------------------------------------|
D-000000000000000000000000--3/5^---3------|6^

G-----------------------|
D-----------------------|
A-----------------------|
D-7-5-8-5-0--10-8-5-7-0-|

Thanks, please rate it after you learn it.
Comments