Lakens Daniel - Blessed Sleep Chords & Tabs

 

Blessed Sleep Chords & Tabs

Lakens Daniel Chords & Tabs

Version: 1 Type: Bass Tab 0 ratings
1 star 2 stars 3 stars 4 stars 5 stars
comments

Blessed Sleep Bass Tab

   
Tabbed by Beltesassar, From the Album "Mind Fashion Boutique" by Daniel 
Lakens



BLESSED SLEEP

MUSIC & LYRICS: DANIEL LAKENS

BASS TABS

VERSE

   Am        G             Am        G
G|-----------------------|-----------------------|
D|---------------------7-|---------------------7-|
A|---------7-3-5---5-7---|---------7-3-5---5-7---|
E|-5---3-5---------------|-5---3-5---------------|

   Am        G             F           E7
G|-----------------------|-----------------------|
D|---------------------7-|-3--3-3--5-3-2--2-2-32-|
A|---------7-3-5---5-7---|-----------------------|
E|-5---3-5---------------|-----------------------|


   C      Cadd9      Am
G|----------------|----------------|
D|---2-5-2---4--7-|----------------|
A|-3-------5------|----------------|
E|----------------|-5---3-5--5-----|
  (4 times)

VERSE

CHORUS
[ Tab from: http://www.guitartabs.cc/tabs/l/lakens_daniel/blessed_sleep_btab.html ]
   C      Cadd9     G     F
G|----------------|----------------|
D|---2-5-2---4--7-|----------------|
A|-3-------5------|----------------|
E|----------------|-3-----1--------|

   E                 Am
G|----------------|----------------|
D|----------------|----------------|
A|----------------|----------------|
E|-0---0---0--0-0-|-5(*)5-7--7-8-7-|
                     (stop 2nd time at *)

INTERMEZZO

   Am
G|----------------|----------------|
D|----------------|-7-7-6-6-5------|
A|----------------|-----------7-6-5|
E|-5-5-3-5--3-5-3-|----------------|


BRIDGE


G|----------------|----------------|
D|----------------|----------------|
A|-3--3-3---------|-------------0-1|
E|---------3--3-3-|-1-1--0-1--3----|

G|----------------|----------------|
D|----------------|----------------|
A|-3--3-3---------|----------------|
E|---------3--3-3-|-1-1--0-1--0-1-3|

G|----------------|----------------|
D|----------------|----------------|
A|-3--3-3---------|----------------|
E|---------3--3-3-|-1-1--0-1--0-1-0|

G|----------------|----------------|
D|----------------|----------------|
A|----------------|-4/7-77XX-4/7-77|
E|-0---0-0--0-0-0-|----------------|

Comments