Lake Trout - Stutter Chords & Tabs

 

Stutter Chords & Tabs

Lake Trout Chords & Tabs

Version: 1 Type: Tab

Stutter Tab

Artist: Lake Trout 
Song:   Stutter
Album:  Another One Lost
Tabbed by: baileyandrew@gmail.com (Andrew Bailey)





EADGBe

Q=119



*plug guitar in.

(trem., dist.)
e |------------|
B |------------|
G |------------|
D |8-------6---|
A |8-------6---|
E |6-------4---|
   sweLLL  sweLLL 
*foot volume pedal.



Riff 1a (trem., dist.)
e |----------------|----------------|
B |----------------|----------------|
G |----------------|----------------|
D |5---5-5-8-------|5---5-5-6-------|
A |5-----5-8-------|5-----3-4-------|
E |3-----3-6-------|3-----3-4-------|

Riff 1b (dist., wah)
e |----------------|----------------|
B |----------------|----------------|
G |----------------|----------------|
D |5---------------^----------------|
A |----------------|----------------|
E |3---------------^----------------|
* wah start open, move to closed.



Riff 2a (trem., dist.)
e |----------------|----------------|
B |----------------|----------------|
G |----------------|----------------|
D |6-------8-------|5-------8-------|
A |6-------8-------|5-------8-------|
E |4-------6-------|3-------6-------|
* slight pm, strumming not shown.



Riff 3a (trem., dist.)
e |----------------|----------------|
B |----------------|----------------|
G |----------------|----------------|
D |----------------|----------------|
A |----5-(5)-----5-|----5-(5)-----5-|
E |3-3-----3-3-3---|3-3-----3-3-3---|
*varied pm.
[ Tab from: http://www.guitartabs.cc/tabs/l/lake_trout/stutter_tab.html ]
Riff 3b (clean)
e |----------------|----------------|
B |----------------|----------------|
G |----------------|----------------|
D |14--------------|12------11------|
A |15--------------|13------12------|
E |----------------|----------------|

Riff 3c (clean)
e |----------------|----------------|
B |----------------|----------------|
G |----------------|----------------|
D |12----11----10--|----------------|
A |---13----12-----|--------10------|
E |----------------|----------------|



Riff 4a (trem., dist.
e |----------------|----------------|
B |----------------|----------------|
G |----------------|----------------|
D |----------------|----------------|
A |----5-------5---|----5-------5---|
E |3-------3-------|3-------3-------|

Riff 4b (clean)
e |----------------|----------------|
B |----------------|----------------|
G |----------------|----------------|
D |14--------------|12------11------|
A |15--------------|13------12------|
E |----------------|----------------|

Riff 4c (clean)
e |----------------|----------------|
B |----------------|----------------|
G |----------------|----------------|
D |12----11----10--|----------------|
A |---13----12-----|--------10------|
E |----------------|----------------|



Outro
e |----------------|----------------|
B |----------------|----------------|
G |----------------|----------------|
D |12----11----10--|----------------|
A |---13---(12)----|--------10------|
E |----------------|----------------|

www.laketrout.com