Lake Of Tears - Four Strings Of Mourning Chords & Tabs

 

Four Strings Of Mourning Chords & Tabs

Lake Of Tears Chords & Tabs

Version: 1 Type: Bass Tab 0 ratings
1 star 2 stars 3 stars 4 stars 5 stars
comments

Four Strings Of Mourning Bass Tab

   
-------------------------------------------------------------------------------
	The Four Strings of Mourning - Lake of Tears
-------------------------------------------------------------------------------
Btab to The four strings of mourning 
By Lake of Tears
From the album Crimson cosmos
Tabbed By : Roland de Graauw (sept 2004)
e-mail: Roland@degraauw.com
You can send me suggestions, possible corrections, or requests if you like. 

Tuning:E-Tuning (standard)

I didn't count all teh repeats, but you'll find out
 
Intro part
G|---------------------------------------------------------------------------|
D|.-7-----7----------7-----7----------5-----5-----2h3--3-----3--------------.|
A|.---5-5---5-5-5-5----5-5---5-5-5-5----3-3---3-3--------1-1---1-1-1-1------.|
E|---------------------------------------------------------------------------|

Bridge 1 (listen to the song for the rythm)
G|---------------------------------|----|-----|------------------------------|
D|.--------------------------------|var1|-var2|-----------------------------.|
A|.3-3-3--5-5-5--1-1-1--1-1-1--1-1-|1-1-|-/17\|-----------------------------.|
E|---------------------------------|----|-----|------------------------------|
[ Tab from: http://www.guitartabs.cc/tabs/l/lake_of_tears/four_strings_of_mourning_btab.html ]
Chorus (spinning around....) (the main pattern is D...Bb...D...Bb...A...)
G|---------------------------------------------------------------------------|
D|.-------------------------------------------------------------------------.|
A|./\-5-5-5-5--5-5-5-5--5-5-5-5--5-5-3-3--1-1-1-1--1-1-1-1--1-1-1-1--1-1-3-3.|
E|-----------------------------------*-*---------------------------------*-*-|
			      *not sure here   
								
G|------------------------------------------------------------------------|
D|.-----------------------------------------------------------------------|
A|.5-5-5-5--5-5-5-5--5-5-5-5--5-5-3-3--1-1-1-1--1-1-1-1--1-1-1-1--1-1-3-3-|-->
E|--------------------------------*-*---------------------------------*-*-|

   (open A on "I wish them...")
G|---------------------------------------------------------------------------|
D|--------------------------------------------------------------------------.|
A|-0-0-0-0--0-0-0-0--0-0-0-0--0-0-0-0---------------------------------------.|
E|---------------------------------------------------------------------------|

Solo
G|---------------------------------------------------------------------------|
D|.-------------------------------------------------------------------------.|
A|.5-5-5-5--5-5-5-5--5-5-5-5--8-7-8-7--3-3-3-3--3-3-3-3--8-7-8-7--10~-------.|
E|---------------------------------------------------------------------------|

Note: at the end of the song during the chorus parts at a point LoT drop to G Eb
instead of D Bb, so same part played lower. To get this, play the G on 3rd fret of 
E-string and Eb on 6th fret of A-string. If you do want to get the Eb low, you have 
to drop to Eb tuning and adjust the song, which I find a lot of trouble for the 
few times it is played;-)  

| /  slide up
| \  slide down
| h  hammer-on
| p  pull-off
| ~  vibrato
| +  harmonic
| x  Mute note
===============================================================================
Comments