Laid Back - Baker Man Chords & Tabs

 

Baker Man Chords & Tabs

Laid Back Chords & Tabs

Version: 1 Type: Tab 0 ratings
1 star 2 stars 3 stars 4 stars 5 stars
comments

Baker Man Tab

Laid Back
Baker Man
This is a guitar version, what means that
(almost) everything is tabbed for guitar.
Ok?So, here are the lyrics and the guitar(arranged)
tabs
Björn Elsner
problems?mail me at 
Bjoern.Elsner@gmx.de
(Don't be scared by this kinda tabbing :-)))
-----------------------------------------------
In memory to my gerbil called "speedy" who died
on 6th april 2001
-----------------------------------------------

Intro:
Guitar 1 (main riff/keyboard arranged for guitar)
---------------------
-3~~~~--1~~~~--------
---------------0~~~~-
--------------------- 2 times
---------------------
---------------------


Then Guitar 2 (plays a guitar solo.Backgound is always Riff 1 above)
[ Tab from: http://www.guitartabs.cc/tabs/l/laid_back/baker_man_tab.html ]
                                        ||
------------------------------------------------------1-----------1-
-7-7~~---7-7p5-7---7-7~~---7-7p5-7--7-7---------------1-2/3/5-3p2-1-
-----------------------------------------7p5\3-2-2-0--2-----------2-
------------------------------------------------------3-----------3-
--------------------------------------------------------------------
--------------------------------------------------------------------

Verse 1
BAKER MAN IS BAKING BREAD
BAKER MAN IS BAKING BREAD
SUCK A BONE AH COME JOIN NUENA
SUCK A BONE AH COME JOIN NUENA

CHORUS
THE NIGHT TRAIN IS COMING
GOT TO KEEP ON RUNNING
THE NIGHT TRAIN IS COMING
GOTT TO KEEP ON RUNING

VERSE 2 = VERSE 1
CHORUS
SOLO (VERY HARD NOT TABBED->but u can use the pattern of the solo riff above and
      improve!!!)

VERSE 3 
BAKER MAN IS BAKING BREAD
SUCK A BONA COME JOIN NUENA
BAKER MAN IS BEAKING BREAD
YOU GOTTA COOL DOWN - TAKE IT EASY
YOU GOTTA COOL DOWN - RELAX - TAKE IT EASY
SLOW DOWN (SLOW DOWN) - RELAX(RELAX) - ITS TOO LATE TO WORRY
SLOW DOWN (SLOW DOWN) - RELAX(RELAX) - TAKE IT EASY
TAKE IT EASY

RIFF 1
SAX SOLO
...fade out



Comments