Lagwagon - Want Chords & Tabs

 

Want Chords & Tabs

Lagwagon Chords & Tabs

Version: 1 Type: Tab 0 ratings
1 star 2 stars 3 stars 4 stars 5 stars
comments

Want Tab

Lagwagon
Want
Let's talk About Leftovers

~ Harmonics

e|---------------------------------------------|
B|---------------------------------------------|
G|---------------------------------------------|
D|-7~----7~----7/2--------7~-------------------|
A|---------------------0------7~---------------|
E|---------------------------------------------|

e|---------------------------------------------|
B|---------------------------------------------|
G|-------6666-------6666-------6666-------9999-|
D|-7777~-6666-7777~-6666-7777~-6666-7777~-9999-|
A|-7777~-4444-7777~-4444-7777~-4444-7777~-7777-|
E|-5555~------5555~------5555~------5555~------|

Verse x4
e|---------------------------------------------|
B|---------------------------------------------|
G|----------77777------------------------------|
D|-7----4---77777------------------------------|
A|-7----4---55555------------------------------|
E|-5----2--------------------------------------|
[ Tab from: http://www.guitartabs.cc/tabs/l/lagwagon/want_tab.html ]
Chorus X2
e|---------------------------------------------|
B|---------------------------------------------|
G|---------------------------------------------|
D|-4444-5555-7777-9999-------------------------|
A|-4444-5555-7777-9999-------------------------|
E|-2222-3333-5555-7777-------------------------|

e|---------------------------------------------|
B|---------------------------------------------|
G|----------7-7-7------------------------------|
D|-7-7-7----7-7-7------------------------------|
A|-7-7-7----5-5-5------------------------------|
E|-5-5-5---------------------------------------|

Outro x4                      
e|---------------------------------------------|
B|---------------------------------------------|
G|----------------7777-------------------------|
D|-7777-2222-4444-7777-------------------------|
A|-7777-2222-4444-5555-------------------------|
E|-5555-0000-2222------------------------------|

e|---------------------------------------------|
B|---------------------------------------------|
G|---------------------------------------------|
D|-7-------------------------------------------|
A|-7-------------------------------------------|
E|-5-------------------------------------------|
Comments