Lagwagon - Today Chords & Tabs

 

Today Chords & Tabs

Lagwagon Chords & Tabs

Version: 1 Type: Bass Tab 0 ratings
1 star 2 stars 3 stars 4 stars 5 stars
comments

Today Bass Tab

Song: Today
Artist: Lagwagon
Album: Double Pladinum
Tabbed by: Shaun McDonald  (diesel_weasel@lycos.com)


G|----------------|----------------|----------------|----------------|
D|----------------|----------------|----------------|----------------|
A|----------------|----------------|----------------|----------------|
E|0-0-0-0-0-0-0-0-|0-0-0-0-0-0-0-0-|4-4-4-4-4-4-4-4-|4-4-4-4-4-4-4-4-|

G|----------------|----------------|----------------|----------------|
D|----------------|----------------|----------------|----------------|
A|----------------|----------------|----------------|----------------|
E|0-0-0-0-0-0-0-0-|0-0-0-0-0-0-0-0-|2-2-2-2-2-2-2-2-|2-2-2-2-2-2-2-2-|

G|----------------|----------------|----------------|----------------|
D|----------------|----------------|----------------|----------------|
A|----------------|----------------|----------------|----------------|
E|7---7---7---7-7-|7---7---7-------|4---4---4---4-4-|4---4---4-------|

G|----------------|----------------|----------------|----------------|
D|----------------|----------------|----------------|----------------|
A|----------------|----------------|9---9---9---9-9-|9---9---9-------|
E|9---9---9---9-9-|9---9---9-------|----------------|----------------|

G|----------------|----------------|----------------|----------------|
D|----------------|----------------|----------------|----------------|
A|----------------|----------------|----------------|----------------|
E|7---7---7---7-7-|7---7---7-------|4---4---4---4-4-|4---4---4-------|

G|----------------|----------------|----------------|----------------|
D|----------------|----------------|----------------|----------------|
A|----------------|----------------|9---9---9---9-9-|9---9---9-------|
E|9---9---9---9-9-|9---9---9-------|----------------|----------------|

G|--------8---11--9---8-----------|--------8---11--9---8-----------|
D|9---11------------------11--9---|9---11------------------11--9---|
A|--------------------------------|--------------------------------|
E|--------------------------------|--------------------------------|

G|--------------------------------|--------------------------------|
D|--------10--13--11--10----------|--------10--13--11--10----------|
A|11--13------------------13--11--|11--13------------------13--11--|
E|--------------------------------|--------------------------------|

G|--------------------------------|--------------------------------|
D|--------8--11---9---8-----------|--------8---11--9---8-----------|
A|9---11------------------11--9---|9---11------------------11--9---|
E|--------------------------------|--------------------------------|

G|---------------/9---9---9---9---|9---9---9---9---9---9---8-------|
D|--------6---9-------------------|----------------------------11--|
A|7---9---------------------------|--------------------------------|
E|--------------------------------|--------------------------------|

G|----------------|----------------|----------------|----------------|
D|----------------|----------------|----------------|----------------|
A|----------------|----------------|9---9---9---9-9-|9---9---9-------|
E|9---9---9---9-9-|9---9---9-------|----------------|----------------|

G|--------8---11--9---8-----------|--------8---11--9---8-----------|
D|9---11------------------11--9---|9---11------------------11--9---|
A|--------------------------------|--------------------------------|
E|--------------------------------|--------------------------------|

G|--------------------------------|--------------------------------|
D|--------10--13--11--10----------|--------10--13--11--10----------|
A|11--13------------------13--11--|11--13------------------13--11--|
E|--------------------------------|--------------------------------|

G|--------------------------------|--------------------------------|
D|--------8--11---9---8-----------|--------8---11--9---8-----------|
A|9---11------------------11--9---|9---11------------------11--9---|
E|--------------------------------|--------------------------------|

G|---------------/9---9---9---9---|9---9---9---9---9---9---8-------|
D|--------6---9-------------------|----------------------------11--|
A|7---9---------------------------|--------------------------------|
E|--------------------------------|--------------------------------|

G|----------------|----------------|----------------|----------------|
D|----------------|----------------|----------------|----------------|
A|----------------|----------------|----------------|6-6-6-6-6-6-----|
E|0-0-0-0-0-0-0-0-|4-4-4-4-4-4-----|2-2-2-2-2-2-2-2-|----------------|

G|----------------|----------------|----------------|----------------|
D|----------------|----------------|----------------|----------------|
A|4-4-4-4-4-4-4-4-|4-4-4-4-4-4-4-4-|----------------|----------------|
E|----------------|----------------|0-0-0-0-0-0-0-0-|0-0-0-0-0-0-0-0-|

G|--------8---11--9---8-----------|--------8---11--9---8-----------|
D|9---11------------------11--9---|9---11------------------11--9---|
A|--------------------------------|--------------------------------|
E|--------------------------------|--------------------------------|

G|--------------------------------|--------------------------------|
D|--------10--13--11--10----------|--------10--13--11--10----------|
A|11--13------------------13--11--|11--13------------------13--11--|
E|--------------------------------|--------------------------------|
[ Tab from: http://www.guitartabs.cc/tabs/l/lagwagon/today_btab.html ]
G|--------------------------------|--------------------------------|
D|--------8--11---9---8-----------|--------8---11--9---8-----------|
A|9---11------------------11--9---|9---11------------------11--9---|
E|--------------------------------|--------------------------------|

G|---------------/9---9---9---9---|9---9---9---9---9---9---8-------|
D|--------6---9-------------------|----------------------------11--|
A|7---9---------------------------|--------------------------------|
E|--------------------------------|--------------------------------|

G|----------------|----------------|----------------|----------------|
D|----------------|----------------|----------------|----------------|
A|----------------|----------------|9---9---9---9-9-|9---9---9-------|
E|9---9---9---9-9-|9---9---9-------|----------------|----------------|

G|--------8---11--9---8-----------|--------8---11--9---8-----------|
D|9---11------------------11--9---|9---11------------------11--9---|
A|--------------------------------|--------------------------------|
E|--------------------------------|--------------------------------|

G|--------------------------------|--------------------------------|
D|--------10--13--11--10----------|--------10--13--11--10----------|
A|11--13------------------13--11--|11--13------------------13--11--|
E|--------------------------------|--------------------------------|

G|--------------------------------|--------------------------------|
D|--------8--11---9---8-----------|--------8---11--9---8-----------|
A|9---11------------------11--9---|9---11------------------11--9---|
E|--------------------------------|--------------------------------|

G|---------------/9---9---9---9---|9---9---9---9---9---9---8-------|
D|--------6---9-------------------|----------------------------11--|
A|7---9---------------------------|--------------------------------|
E|--------------------------------|--------------------------------|

G|----------------|----------------|----------------|----------------|
D|----------------|----------------|----------------|----------------|
A|----------------|----------------|----------------|6-6-6-6-6-6-----|
E|0-0-0-0-0-0-0-0-|4-4-4-4-4-4-----|2-2-2-2-2-2-2-2-|----------------|

G|----------------|----------------|----------------|----------------|
D|----------------|----------------|----------------|----------------|
A|4-4-4-4-4-4-4-4-|4-4-4-4-4-4-4-4-|----------------|----------------|
E|----------------|----------------|0---------------|----------------|

G|----------------|----------------|----------------|----------------|
D|----------------|----------------|----------------|----------------|
A|----------------|----------------|----------------|----------------|
E|4-4-4-4-4-4-4-4-|4-4-4-4-4-4-4-4-|0-0-0-0-0-0-0-0-|0-0-0-0-0-0-0-0-|

G|----------------|----------------|----------------|----------------|
D|----------------|----------------|----------------|----------------|
A|----------------|----------------|----------------|----------------|
E|4-4-4-4-4-4-4-4-|4-4-4-4-4-4-4-4-|5-5-5-5-5-5-5-5-|5-5-5-5-5-5-5-5-|

G|----------------|----------------|----------------|----------------|
D|----------------|----------------|----------------|----------------|
A|6-6-6-6-6-6-6-6-|4-4-4-4-4-4-4-4-|----------------|----------------|
E|----------------|----------------|0-0-0-0-0-0-0-0-|5---------------|

G|--------8---11--9---8-----------|--------8---11--9---8-----------|
D|9---11------------------11--9---|9---11------------------11--9---|
A|--------------------------------|--------------------------------|
E|--------------------------------|--------------------------------|

G|--------------------------------|--------------------------------|
D|--------10--13--11--10----------|--------10--13--11--10----------|
A|11--13------------------13--11--|11--13------------------13--11--|
E|--------------------------------|--------------------------------|

G|--------------------------------|--------------------------------|
D|--------8--11---9---8-----------|--------8---11--9---8-----------|
A|9---11------------------11--9---|9---11------------------11--9---|
E|--------------------------------|--------------------------------|

G|---------------/9---9---9---9---|9---9---9---9---9---9---8-------|
D|--------6---9-------------------|----------------------------11--|
A|7---9---------------------------|--------------------------------|
E|--------------------------------|--------------------------------|

G|----------------|----------------|----------------|----------------|
D|----------------|----------------|----------------|----------------|
A|----------------|----------------|9---9---9---9-9-|9---9---9-------|
E|9---9---9---9-9-|9---9---9-------|----------------|----------------|

G|--------8---11--9---8-----------|--------8---11--9---8-----------|
D|9---11------------------11--9---|9---11------------------11--9---|
A|--------------------------------|--------------------------------|
E|--------------------------------|--------------------------------|

G|--------------------------------|--------------------------------|
D|--------10--13--11--10----------|--------10--13--11--10----------|
A|11--13------------------13--11--|11--13------------------13--11--|
E|--------------------------------|--------------------------------|

G|--------------------------------|--------------------------------|
D|--------8--11---9---8-----------|--------8---11--9---8-----------|
A|9---11------------------11--9---|9---11------------------11--9---|
E|--------------------------------|--------------------------------|

G|---------------/9---9---9---9---|9---9---9---9---9---9---8-------|
D|--------6---9-------------------|----------------------------11--|
A|7---9---------------------------|--------------------------------|
E|--------------------------------|--------------------------------|

G|----------------|
D|9---------------|
A|----------------|
E|----------------|

Comments