Lagwagon - Sick Chords & Tabs

 

Sick Chords & Tabs

Lagwagon Chords & Tabs

Version: 2 Type: Bass Tab 0 ratings
1 star 2 stars 3 stars 4 stars 5 stars
comments

Sick Bass Tab

Sick - Lag Wagon
tabbed by: ryan b

***rest for guitar/vocals (0:00 - 0:16)***

Riff A (once):
A------------------5555-77777777-----------------
E--5555-7777-8888-----------------33333333-------

Riff B (once): 
G-------------------------------------------------
D--------------------------7777-------------------
A---------7777-8888---------------7777-8888-3333--
E--5555--------------8888-------------------------

Riff A: (once)
Riff B: (once)
Riff A: (once)

Riff C (twice):
A--33333333-----------55555555-----------------------11-
E-----------33333333-----------00000000-111111111111----

Riff B: (once)
Riff A: (once)
[ Tab from: http://www.guitartabs.cc/tabs/l/lagwagon/sick_btab_ver_2.html ]
Riff D: (once)
A---------7777-8888--------------
E---5555--------------8888-------

***rest for "Psychosomatic..." (1:11 - 1:13)***
Riff A: (once)
Riff C: (twice)

Riff E: (3 times):
A--------777-888-10-10-10--
E---888--------------------

Riff F: (once)
A----------5----3-------
E----5-3-----1-----6---

Riff G: (9 times, on the last time don't play the last eighth fret A)
A---------8-7-8--
E--5-7-8---------

Riff B: (once)
Riff A: (once)
Riff D: (once)
Riff B: (3 times)

Riff H: (once)
G---------------------------------------------------
D--------------------------7777---------------------
A---------7777-8888---------------7777-8888-3333-0--
E--5555--------------8888---------------------------


Comments