Lagwagon - Secret Song Chords & Tabs

 

Secret Song Chords & Tabs

Lagwagon Chords & Tabs

Version: 1 Type: Bass Tab 0 ratings
1 star 2 stars 3 stars 4 stars 5 stars
comments

Secret Song Bass Tab

Secret Song 
By: Lagwagon
From: Let's Talk About Feelings
It is on the 25th track and starts at about 16 minutes into the song

Repeat this over and over for about four minutes or so:
[ Tab from: http://www.guitartabs.cc/tabs/l/lagwagon/secret_song_btab.html ]
G]15----------15----------16-16-15-15-13-16-16-15-15-13-13-21-21-19-17-15
D]---15-15-15----15-15-15------------------------------------------------
A]-----------------------------------------------------------------------
E]-----------------------------------------------------------------------

CONTINUING

G]-21-21-19-17-15------
D]----------------18-16
A]---------------------
E]---------------------

Tabbed by Greg

Comments