Lagwagon - Ride The Snake Chords & Tabs

 

Ride The Snake Chords & Tabs

Lagwagon Chords & Tabs

Version: 1 Type: Tab 0 ratings
1 star 2 stars 3 stars 4 stars 5 stars
comments

Ride The Snake Tab

   
------------------------------------------------------------------------------
                         RIDE THE SNAKE - Lagwagon
-------------------------------------------------------------------------------

by:Nathan Tambaz

e-|-----------------------------------------------------------------
B-|-----------------------------------------------------------------
G-|-----------------------------------------------------------------
D-|-9-9-9-9---------9-9-9-9---------9-9-9-9-------------------------
A-|-7-7-7-7-6-6-6-6-7-7-7-7-6-6-6-6-7-7-7-7-9-9-9-9-6-6-6-6-4-4-4-4-
E-|---------4-4-4-4---------4-4-4-4---------7-7-7-7-4-4-4-4-2-2-2-2-

e-|-----------------------------------------------------------------
B-|-----------------------------------------------------------------
G-|-----------------------------------------------------------------
D-|-9-9-9-9---------9-9-9-9---------9-9-9-9-------------------------
A-|-7-7-7-7-6-6-6-6-7-7-7-7-6-6-6-6-7-7-7-7-9-9-9-9-6-6-6-6-4-4-4-4-
E-|---------4-4-4-4---------4-4-4-4---------7-7-7-7-4-4-4-4-2-2-2-2-

e-|-----------------------------------------|
B-|-----------------------------------------|
G-|-----------------------------------------|
D-|-----------------------------------------|
A-|-2-2-2-2-4-4-4-4-9-8-6-4-2-2-2-2-2-2-2-4-|
E-|-0-0-0-0-2-2-2-2-7-6-4-2-0-0-0-0-0-0-0-2-|

e-|-----------------------------------------------------------------
B-|-----------------------------------------------------------------
G-|-----------------------------------------------------------------
D-|-4-4-4-4---------8-8-8-8-9-9-9-9-4-4-4-4---------8-8-8-8-9-9-9-9-
A-|-2-2-2-2-4-4-4-4-6-6-6-6-7-7-7-7-2-2-2-2-4-4-4-4-6-6-6-6-7-7-7-7-
E-|---------2-2-2-2-------------------------2-2-2-2-----------------

e-|-----------------------------------------------------------------|
B-|-----------------------------------------------------------------|
G-|-----------------------------------------------------------------|
D-|-4-4-4-4---------8-8-8-8-9-9-9-9-4-4-4-4-6-6-6-6-8-8-8-8-9-9-9-9-|
A-|-2-2-2-2-4-4-4-4-6-6-6-6-7-7-7-7-2-2-2-2-4-4-4-4-6-6-6-6-7-7-7-7-|
E-|---------2-2-2-2-------------------------------------------------|

e-|-----------------------------------------------------------------
B-|-----------------------------------------------------------------
G-|-----------------------------------------------------------------
D-|-9-9-9-9---------9-9-9-9---------9-9-9-9-------------------------
A-|-7-7-7-7-6-6-6-6-7-7-7-7-6-6-6-6-7-7-7-7-9-9-9-9-6-6-6-6-4-4-4-4-
E-|---------4-4-4-4---------4-4-4-4---------7-7-7-7-4-4-4-4-2-2-2-2-

e-|-----------------------------------------------------------------
B-|-----------------------------------------------------------------
G-|-----------------------------------------------------------------
D-|-9-9-9-9---------9-9-9-9---------9-9-9-9-------------------------
A-|-7-7-7-7-6-6-6-6-7-7-7-7-6-6-6-6-7-7-7-7-9-9-9-9-6-6-6-6-4-4-4-4-
E-|---------4-4-4-4---------4-4-4-4---------7-7-7-7-4-4-4-4-2-2-2-2-
[ Tab from: http://www.guitartabs.cc/tabs/l/lagwagon/ride_the_snake_tab.html ]
e-|-----------------------------------------|
B-|-----------------------------------------|
G-|-----------------------------------------|
D-|-----------------------------------------|
A-|-2-2-2-2-4-4-4-4-9-8-6-4-2-2-2-2-2-2-2-4-|
E-|-0-0-0-0-2-2-2-2-7-6-4-2-0-0-0-0-0-0-0-2-|

e-|-----------------------------------------------------------------
B-|-----------------------------------------------------------------
G-|-----------------------------------------------------------------
D-|-4-4-4-4---------8-8-8-8-9-9-9-9-4-4-4-4---------8-8-8-8-9-9-9-9-
A-|-2-2-2-2-4-4-4-4-6-6-6-6-7-7-7-7-2-2-2-2-4-4-4-4-6-6-6-6-7-7-7-7-
E-|---------2-2-2-2-------------------------2-2-2-2-----------------

e-|-----------------------------------------------------------------|
B-|-----------------------------------------------------------------|
G-|-----------------------------------------------------------------|
D-|-4-4-4-4---------8-8-8-8-9-9-9-9-4-4-4-4-6-6-6-6-8-8-8-8-9-9-9-9-|
A-|-2-2-2-2-4-4-4-4-6-6-6-6-7-7-7-7-2-2-2-2-4-4-4-4-6-6-6-6-7-7-7-7-|
E-|---------2-2-2-2-------------------------------------------------|

e-|-------------------------------------------------------------------------
B-|-------------------------------------------------------------------------
G-|-------------------------------------------------------------------------
D-|-13-13-13-13-12-12-12-12-13-13-13-13-12-12-12-12-13-13-13-13-11-11-11-11-
A-|-11-11-11-11-10-10-10-10-11-11-11-11-10-10-10-10-11-11-11-11--9--9--9--9-
E-|-------------------------------------------------------------------------

e-|-------------------------------------------
B-|-------------------------------------------
G-|-------------------------------------------
D-|-8-8-8-8-8-8-8-8-6-6-6-6-8-8-8-8-9-9-9-9---
A-|-6-6-6-6-6-6-6-6-4-4-4-4-6-6-6-6-7-7-7-7-6-
E-|-----------------------------------------4-

e-|-------------------------------------------------------------------------
B-|-------------------------------------------------------------------------
G-|-------------------------------------------------------------------------
D-|-9-9-9-9---------9-9-9-9---------9-9-9-9---------------------------------
A-|-7-7-7-7-6-6-6-6-7-7-7-7-6-6-6-6-7-7-7-7-9-9-9-9-6-6-6-6-4-4-4-4-2-2-2-2-
E-|---------4-4-4-4---------4-4-4-4---------7-7-7-7-4-4-4-4-2-2-2-2-0-0-0-0-

e-|---------------------------------|
B-|---------------------------------|
G-|---------------------------------|
D-|---------------------------------|
A-|-4-4-4-4-9-8-6-4-2-2-2-2-2-2-2-4-|
E-|-2-2-2-2-7-6-4-2-0-0-0-0-0-0-0-2-|

e-|-----------------------------------------------------------------
B-|-----------------------------------------------------------------
G-|-----------------------------------------------------------------
D-|-4-4-4-4---------8-8-8-8-9-9-9-9-4-4-4-4---------8-8-8-8-9-9-9-9-
A-|-2-2-2-2-4-4-4-4-6-6-6-6-7-7-7-7-2-2-2-2-4-4-4-4-6-6-6-6-7-7-7-7-
E-|---------2-2-2-2-------------------------2-2-2-2-----------------

e-|-------------------------------------------------------------------|
B-|-------------------------------------------------------------------|
G-|-------------------------------------------------------------------|
D-|-4-4-4-4---------8-8-8-8-9-9-9-9-4-4-4-4-6-6-6-6-8-8-8-8-9-9-9-9---|
A-|-2-2-2-2-4-4-4-4-6-6-6-6-7-7-7-7-2-2-2-2-4-4-4-4-6-6-6-6-7-7-7-7-9-|
E-|---------2-2-2-2-------------------------------------------------7-|

  ====================================================================
Comments