Lagwagon - Owen Meaney Chords & Tabs

 

Owen Meaney Chords & Tabs

Lagwagon Chords & Tabs

Version: 1 Type: Tab 0 ratings
1 star 2 stars 3 stars 4 stars 5 stars
comments

Owen Meaney Tab

Lagwagon,Owen Meaney.
Tabbed by Ray Mac,RayMac15@aol.com.
  
The orders of the parts are at the end of each guitars section.
.  = Palm Muted
x  =    Mute String
/  =  Slide Up
\  = Slide Down

Guitar 1 
Fig. 1
|------------------------------------------------------------------|
|------------------------------------------------------------------|
|-.-.-.-.-.-.-.--.-.-.-.-.-.-.--.-.-.-.-.-.-.--.-.-.-.-.-.-.-------|
|-5-5-5-5-5-5-5--5-5-5-5-5-5-5--5-5-5-5-5-5-5--5-5-5-5-5-5-5-------|
|-5-5-5-5-5-5-5--5-5-5-5-5-5-5--5-5-5-5-5-5-5--5-5-5-5-5-5-5-------|
|-3-3-3-3-3-3-3--3-3-3-3-3-3-3--3-3-3-3-3-3-3--3-3-3-3-3-3-3-------|

|------------------------------------------------------------------|
|------------------------------------------------------------------|
|-.-.-.-.-.-.-.--.-.-.-.-.-.-.--.-.-.-.-.-.-.--.-.-.-.-.-.-.-------|
|-7-7-7-7-7-7-7--7-7-7-7-7-7-7--7-7-7-7-7-7-7--7-7-7-7-7-7-7-------|
|-7-7-7-7-7-7-7--7-7-7-7-7-7-7--7-7-7-7-7-7-7--7-7-7-7-7-7-7-------|
|-5-5-5-5-5-5-5--5-5-5-5-5-5-5--5-5-5-5-5-5-5--5-5-5-5-5-5-5-------|

Fig. 2
|------------------------------------------------------------------|
|------------------------------------------------------------------|
|-------7------7--------7------7--------7------7--------7------7---|
|------------------------------------------------------------------|
|-5-5-5---5-5-----5-5-5---5-5-----5-5-5---5-5-----5-5-5---5-5------|
|------------------------------------------------------------------|

|------------------------------------------------------------------|
|------------------------------------------------------------------|
|-------7------7--------7------7-------11-----11--------9-----9----|
|------------------------------------------------------------------|
|-5-5-5---5-5-----5-5-5---5-5-----9-9-9---9-9-----7-7-7---7-7------|
|------------------------------------------------------------------|

Fig. 3
|------------------------------------------------------------------|
|------------------------------------------------------------------|
|-7-7-7--7-7-7--7-7-7--12--11-11--9-9-9--9-9-9--9-9-9--11-11--9----|
|-x-x-x--x-x-x--x-x-x---x---x--x--x-x-x--x-x-x--x-x-x---x--x--x----|
|-5-5-5--5-5-5--5-5-5--10---9--9--7-7-7--7-7-7--7-7-7---9--9--7----|
|------------------------------------------------------------------|
[ Tab from: http://www.guitartabs.cc/tabs/l/lagwagon/owen_meaney_tab.html ]
Fig. 4
|-------------------------------------------------------------------|
|-------------------------------------------------------------------|
|-14--12-12-12--14--12-12-12--14---14--12-12-12--14--12-12-12--14---|
|--x---x--x--x---x---x--x--x---x----x---x--x--x---x---x--x--x---x---|
|-12--10-10-10--12--10-10-10--12---12--10-10-10--12--10-10-10--12---|
|-------------------------------------------------------------------|

Fig. 5
|------------------------------------------|
|------------------------------------------|
|-14-14-14--14-14-14--12-12-12--11-11-11---|
|--x--x--x---x--x--x---x--x--x---x--x--x---|
|-12-12-12--12-12-12--10-10-10---9--9--9---|
|------------------------------------------|

Fig. 6
|----------------------------------------------------------|
|----------------------------------------------------------|
|----------------------------------------------------------|
|-5-5-5--5-5-5--7-7-7--7-7-7--5-5-5--5-5-5--7-7-7--7-7-7---|
|-5-5-5--5-5-5--7-7-7--7-7-7--5-5-5--5-5-5--7-7-7--7-7-7---|
|-3-3-3--3-3-3--5-5-5--5-5-5--3-3-3--3-3-3--5-5-5--5-5-5---|

Fig. 7
|------------------------------------------------------------|
|------------------------------------------------------------|
|-7-7-7--7-7-7-----------------------------------------------|
|-7-7-7--7-7-7--4-4-4--4-4-4--5-5-5--5-5-5--7-7-7--7-7-7-----|
|-5-5-5--5-5-5--4-4-4--4-4-4--5-5-5--5-5-5--7-7-7--7-7-7-----|
|---------------2-2-2--2-2-2--3-3-3--3-3-3--5-5-5--5-5-5-----|

Fig. 8
|-----------------------------------------------|
|-----------------------------------------------|
|-----------------------------------------------|
|-9-------5---2----4-4-4--4-4-4--5-5-5--7-7-7---|
|-9-------5---2----4-4-4--4-4-4--5-5-5--7-7-7---|
|-7-------3---0----2-2-2--2-2-2--3-3-3--5-5-5---|

Fig. 9
|------------------------------------------------------------------------|
|------------------------------------------------------------------------|
|-7-7-7-7-7-7-7---7-7-7-7-7-7-7---12-12-12-12-12-12-12---7-7-7-7-7-7-7---|
|-7-7-7-7-7-7-7---7-7-7-7-7-7-7----x--x--x--x--x--x--x---7-7-7-7-7-7-7---|
|-5-5-5-5-5-5-5---5-5-5-5-5-5-5---10-10-10-10-10-10-10---5-5-5-5-5-5-5---|
|------------------------------------------------------------------------|

Fig. 10
|-------------------------------------|
|-------------------------------------|
|-7--9--11--12--9--11--9-9-9--9-9-9---|
|-x--x---x---x--x---x--x-x-x--x-x-x---|
|-5--7---9--10--7---9--7-7-7--7-7-7---|
|-------------------------------------|

Fig. 11
|-----|
|-----|
|-7\--|
|-7\--|
|-5\--|
|-----|

ORDER:
FIG. 1
FIG. 1
FIG. 2
FIG. 2
FIG. 3
FIG. 3
FIG. 4
FIG. 5
FIG. 4
FIG. 5
FIG. 6
FIG. 6
FIG. 7
FIG. 7
FIG. 7
FIG. 8
FIG. 9
FIG. 7
FIG. 7
FIG. 8
FIG. 4
FIG. 5
FIG. 4
FIG. 5
FIG. 3
FIG. 10
FIG. 4
FIG. 11
 
:: Ultimate Guitar Archive :: 
http://www.ultimate-guitar.com 

Comments