Lagwagon - No Conviction Chords & Tabs

 

No Conviction Chords & Tabs

Lagwagon Chords & Tabs

Version: 1 Type: Bass Tab 0 ratings
1 star 2 stars 3 stars 4 stars 5 stars
comments

No Conviction Bass Tab

Lagwagon - no conviction
album: let's talk about leftovers
tabbed by: nazz_desperation

intro/outro
G|----------------------------------------------------------|
D|----12------12-12----10------10-10\9---8-----8-8----------|
A|----------------------------------------------------------|
D|-12------12-------10------10---------8-----8------6---/18-|

riff 1.
G|-----------------------------------------------------------------|
D|-----------------------------------------------------------------|
A|-5-5-5-5-5-5-5-5-3-3-3-3-3-3-3-3-1-1-1-1-1-1-1-1-----------------|
D|-------------------------------------------------6---6---6---6---|
[ Tab from: http://www.guitartabs.cc/tabs/l/lagwagon/no_conviction_btab.html ]
riff 2.                               variation
G|---------------------------------| |---------------------------------|
D|---------------------------------| |---------------------------------|
A|---------1-0-------------1-0-----| |-5-5-5-5-5-5-5-5-6-6-6-6-6-6-6-6-|
D|-0-0-0-0-----3-2-1-1-1-1-----3-1-| |---------------------------------|

riff 3.                               you kick in after bass solo with:
G|---------------------------------| |---------|
D|---------------------------------| |---------|
A|-5---5---5---5-------0-1---1---1-| |-----0-1-|
D|-----------------2-3-------------| |-2-3-----|

bass solo's (figure out the rithem yourself)

1.
A|-------------0-1-5-5-5-5-3-0-| <-- could be -1- also
D|-0-0-0-0-2-3-----------------|

2.
A|-------------0-1-------------|
D|-0-0-0-0-2-3-----0-0-0-0-0-0-|

3.
A|-------------0-1-5-5-5-5-5-3-|
D|-0-0-0-0-2-3-----------------|

that's basicly it! listen to the song fot the rithems and riff 1. ends
starting from the 2nd time with a high D-6- (D-18-)
enjoy with this way cool song
Comments