Lagwagon - Name Dropping Chords & Tabs

 

Name Dropping Chords & Tabs

Lagwagon Chords & Tabs

Version: 2 Type: Bass Tab 0 ratings
1 star 2 stars 3 stars 4 stars 5 stars
comments

Name Dropping Bass Tab

Name Dropping - Lagwagon
tabbed by: ryan b

Riff A: (once)
A----2-2-2-2---2-2-2-2---2-2-2-2---2-2-2-2---
E--2---------2---------2---------2---------2-

Riff B: (once)
A--22222222-11111111-------------------------6--4--------
E---------------------44444444--22222222--4--------2--0--

Riff C: (once)
A--2-2-2-6-7-7-7-7-2-2-2-6-7-7-7-7-2-2-2-6-7-7-7--
E-------------------------------------------------

Riff D: (once)
A----6-4-------44444444--44444444--
E--4-----2-0-----------------------

Riff C: (once)
Riff D: (once)
[ Tab from: http://www.guitartabs.cc/tabs/l/lagwagon/name_dropping_btab_ver_2.html ]
Riff E: (once)
A------------22222222-44444444----------------------
E--44444444---------------------22222222--44444444--

Riff F: (once)
A--22222222-22222222--66666666------------22222222------------
E-------------------------------44444444------------22222222--

Riff G: (once)
A--66666666----6-4----7-7-7-7-7-7-4-4-4-4-4-4--
E------------4-----2---------------------------

Riff B: (once)
Riff C: (once)
Riff D: (once)
Riff C: (once)
Riff D: (once)
Riff E: (once)
Riff F: (once)
Riff G: (once)
Riff E: (once)
Riff F: (once)

Riff H: (once)
A--66666666--
E------------

Riff B: (4 times) - Ending on G (E string 3rd fret)

Comments