Lagwagon - Messengers Chords & Tabs

 

Messengers Chords & Tabs

Lagwagon Chords & Tabs

Version: 1 Type: Tab 0 ratings
1 star 2 stars 3 stars 4 stars 5 stars
comments

Messengers Tab

T1: Mark Norris, mnorris11@hotmail.com, Lagwagon, Messengers, 10/12/98

S1: Song: Messengers
Band: Lagwagon
Album: Let's Talk About Feelings
Tabbed by: Mark Norris (mnorris11@hotmail.com)


ALL CHORDS WITH *'S UNDERNEATH ARE PALM MUTED
INTRO
Guitar 1 
|---------------------------------------------------------------------------
|---------------------------------------------------------------------------
|---------------------------------------------------------------------------
|-5--5-5-5-5-5-5-----5-5-4--5--5-5-5-5-5-5-----5-5-4-2-2-2-2-2-2-2--5-5-----
|-3--3-3-3-3-3-3-5-5-3-3-2--3--3-3-3-3-3-3-5-5-3-3-2-0-0-0-0-0-0-0--3-3-5-5-
|----------------3-3-----------------------3-3--------------------------3-3-
     * * * * * *   *   *      * * * * * *    *   *     * * * * * *    *
  *

|----------------------|
|----------------------|
|----------------------|
|----------------------|
|-5-5-3-3-3-3-3-3-3-5--|
|-3-3-1-1-1-1-1-1-1-3--|
    *   * * * * * *


VERSE 1 (Up until the end of the riff under "One thing is true..")

Guitar 1
|----------------------------------------------------------------------------
|----------------------------------------------------------------------------
|---------------------5--5----------------------5--5----------------------7-7
|-5-5-5-5--5-5--3-3-3-------5-5-5-5--5-5--5-5-5------7-7-7-7--7-7--7-7-7-----
|-3-3-3-3--3-3--5-5-5-------3-3-3-3--3-3--3-3-3------5-5-5-5--5-5--5-5-5-----
|----------------------------------------------------------------------------
           *                         *                         *

|----------------------------------------------------------------------------
|----------------------------------------------------------------------------
|---------------------7--7---------------------------------------------------
|-7-7-7-7--7-7--7-7-7--------------------------------------------------------
|-5-5-5-5--5-5--5-5-5-----------3-3-3-3-3-3-3-3-3-3-3-3-3-3-3--5-5-5-5-5-5-5-
|-------------------------------1-1-1-1-1-1-1-1-1-1-1-1-1-1-1--3-3-3-3-3-3-3-
              *                                          
|---------------------------------------------------------------------------
|---------------------------------------------------------------------------
|------------------------------------------------10-10-10-10-10-10-10-10-10-
|-----------------5-5-5---------2-2-2-2-2-2-2-2---x--x--x--x--x--x--x--x--x-
|-5-5-5-5-5-5-5---3-3-3--2-2-2--0-0-0-0-0-0-0-0---8--8--8--8--8--8--8--8--8-
|-3-3-3-3-3-3-3----------0-0-0----------------------------------------------

|-----------------------------------------------------------------|
|-----------------------------------------------------------------|
|-10-10-10-10-10-10-10--12-12-12-12-12-12-12-12-12-12-12-12-12-12-|
|--x--x--x--x--x--x--x---x--x--x--x--x--x--x--x--x--x--x--x--x--x-|
|--8--8--8--8--8--8--8--10-10-10-10-10-10-10-10-10-10-10-10-10-10-|
|-----------------------------------------------------------------|

Guitar 2
|---------------------------------------------------------------------------
|---------------------------------------------------------------------------
|--------------------9--9----------------------9--9----------------------10-
|-5-5-5-5--5--5-5-5--x--x---5-5-5-5--5--5-5-5--x--x---7-7-7-7--7--7-7-7---x-
|-3-3-3-3--3--3-3-3--7--7---3-3-3-3--3--3-3-3--7--7---5-5-5-5--5--5-5-5---8-
|---------------------------------------------------------------------------

|---------------------------------------------------------------------------
|---------------------------------------------------------------------------
|-10----------------------10------------------------------------------------
|--x---7-7-7-7--7--7-7-7---x------------------------------------------------
|--8---5-5-5-5--5--5-5-5---8---3-3-3-3-3-3-3-3-3-3-3-3-3-3-3--5-5-5-5-5-5-5-
|------------------------------1-1-1-1-1-1-1-1-1-1-1-1-1-1-1--3-3-3-3-3-3-3-
[ Tab from: http://www.guitartabs.cc/tabs/l/lagwagon/messengers_tab.html ]
|---------------------------------------------------------------------------
|---------------------------------------------------------------------------
|---------------------------------------------------------------------------
|-----------------5-5-5---------2-2-2-2-2-2-2-2-----------------------------
|-5-5-5-5-5-5-5---3-3-3--2-2-2--0-0-0-0-0-0-0-0---3-3-3-3-3-3-3-3-3-3-3-3-3-
|-3-3-3-3-3-3-3----------0-0-0--------------------1-1-1-1-1-1-1-1-1-1-1-1-1-

|----------------------------------|
|----------------------------------|
|----------------------------------|
|----------------------------------|
|-3-3--5-5-5-5-5-5-5-5-5-5-5-5-5-5-|
|-1-1--3-3-3-3-3-3-3-3-3-3-3-3-3-3-|


VERSE 2

Guitar 1
|----------------------------------------------------------------------------
|----------------------------------------------------------------------------
|-5--x-9-9-9-x-5--x---------5--x-9-9-9-x-5-x----------7----10-10-10---7------
|-x--x-x-x-x-x-x--x-5-5-5---x--x-x-x-x-x-x-x--5-5-5---x--x--x--x--x-x-x--x-7-
|-3--x-7-7-7-x-3--x-x-x-x---3--x-7-7-7-x-3-x--x-x-x---5--x--8--8--8-x-5--x-x-
|----x-------x----x-3-3-3------x-------x---x--3-3-3------x----------x----x-5-

|-----------------------------------------------------------------
|-----------------------------------------------------------------
|------------------------------------------------------12--13--14-
|-7-7------------------------2--------------------------x---x---x-
|-x-x---3-3-3-3-3-3-3-3-3-3--0--5-5-5-5-5-5-5-5-5-5----10--11--12-
|-5-5---1-1-1-1-1-1-1-1-1-1-----3-3-3-3-3-3-3-3-3-3---------------

|------------------------------------------------------------|
|------------------------------------------------------------|
|-5--7--9--10-10-10-10-10-10-10-10-10-10-10-10-10-10-10---13-|
|-x--x--x---x--x--x--x--x--x--x--x--x--x--x--x--x--x--x----x-|
|-3--5--7---8--8--8--8--8--8--8--8--8--8--8--8--8--8--8---11-|
|------------------------------------------------------------|


Guitar 2
|---------------------------------------------------------------------------
|---------------------------------------------------------------------------
|--------------------9--9----------------------9--9----------------------10-
|-5-5-5-5--5--5-5-5--x--x---5-5-5-5--5--5-5-5--x--x---7-7-7-7--7--7-7-7---x-
|-3-3-3-3--3--3-3-3--7--7---3-3-3-3--3--3-3-3--7--7---5-5-5-5--5--5-5-5---8-
|---------------------------------------------------------------------------

|----------------------------------------------------------------------------
|----------------------------------------------------------------------------
|-10----------------------10-------------------------------------------------
|--x---7-7-7-7--7--7-7-7---x----------------------------------2--------------
|--8---5-5-5-5--5--5-5-5---8---3-3-3-3-3-3-3-3-3-3-3-3-3-3-3--0--5-5-5-5-5-5-
|------------------------------1-1-1-1-1-1-1-1-1-1-1-1-1-1-1-----3-3-3-3-3-3-

|---------------------------------------------------------------------------
|---------------------------------------------------------------------------
|--------------------------------------------------5-7-9--------------------
|-------------------5-5-5---------2-2-2-2-2-2-2-2--x-x-x--------------------
|-5-5-5-5-5-5-5-5---3-3-3--2-2-2--0-0-0-0-0-0-0-0--3-5-7--3-3-3-3-3-3-3-3-3-
|-3-3-3-3-3-3-3-3----------0-0-0--------------------------1-1-1-1-1-1-1-1-1-

|--------------|
|--------------|
|--------------|
|--------------|
|-3-3-3-3-3-3~-|
|-1-1-1-1-1-1~-|


INTERLUDE ("..Blue skies..") **I'm Not Sure About This Part**

Both Guitars | Guitar 2
|---------------------|
|-1-----1-------------|
|-2--1--0-------5-7-9-|
|-2--2--2-------x-x-x-|
|----2--3-------3-5-7-|
|---------------------|


"Falling out.." (Guitar 2 - Guitar One is holding a harmonic) 
|------------------------------------------------------|
|------------------------------------------------------|
|------------------------------------------------------|
|------------------------------------------------------|
|-3-3-3-3-3-3-3-3-3-3-3-3-3----5-5-5-5-5-5-5-5-5-5-5-5-|
|-1-1-1-1-1-1-1-1-1-1-1-1-1----3-3-3-3-3-3-3-3-3-3-3-3-|


SOLO

GUITAR 2 Plays it's verse riff while GUITAR 1 plays this solo

|----------------------------------------------------|
|----------------------------------------------------|
|-5~---5--7--9-----7~---7--9--10-----7~----9-/-1--2~-|
|---------------7-----------------7------------------|
|----------------------------------------------------|
|----------------------------------------------------|


"Late, i can stay up.."  Just play the intro without the P.M's



OUTRO (Use these chords)
|----------|
|----------|
|----------|
|-7--9--10-|
|-5--7---8-|
|----------|
Comments