Lagwagon - May 1 Chords & Tabs

 

May 1 Chords & Tabs

Lagwagon Chords & Tabs

Version: 1 Type: Tab 0 ratings
1 star 2 stars 3 stars 4 stars 5 stars
comments

May 1 Tab

   
MAY 16 - LAGWAGON


Tabbed By: Mark Norris (mnorris11@hotmail.com)

Intro - First part *Guitar 1*
|--------------------------------------------------|
|--------------------------------------------------|
|-9-7-6-7-----9-7-6-7-----9-7-6-7-----7-6-4-2------|
|-0-0-0-0-----0-0-0-0-----0-0-0-0-----0-0-0-0------|
|--------------------------------------------------|
|--------------------------------------------------|

*Guitar 2*
|---------------------------------------------|
|---------------------------------------------|
|---------------------------------------------|
|-7-7-7-7-----7-7-7-7-----7-7-7-7-----------2-|
|-5-5-5-5-----5-5-5-5-----5-5-5-5-----------0-|
|---------------------------------------------|

Intro - Second Part *Guitar 1*
|------------------------------------------------------|
|------------------------------------------------------|
|-9-7-6-7-7-7-6-6-6-7-7-7-7--9-7-6-7-7-7-6-6-6-7-7-7-7-|
|-0-0-0-0-0-0-0-0-0-0-0-0-0--0-0-0-0-0-0-0-0-0-0-0-0-0-|
|------------------------------------------------------|
|------------------------------------------------------|

|----------------------------------------------------|
|----------------------------------------------------|
|-9-7-6-7-7-7-6-6-6-7-7-7-7--7-6-4-2-2-2-7-7-7-6-6-6-|
|-0-0-0-0-0-0-0-0-0-0-0-0-0--0-0-0-0-0-0-0-0-0-0-0-0-|
|----------------------------------------------------|
|----------------------------------------------------|

Guitar 2 Plays these chords under the main riff.
(Change chord when guitar 1 changes - it's easy enough to figure out).
Progression.
|------------|
|------------|
|-7----------|
|-7--9--5--7-|
|-5--9--5--7-|
|----7--3--5-|


Verse (Both Guitars)
1st Progression, then play the second progression at the end of the first bar
|------------|-------|
|------------|-------|
|-7--2--7----|-4-7-6-|
|-7--2--7--4-|-------|
|-5--4--5--4-|-2-5-4-|
|----------2-|-------|

2nd Progression (Starts on "..It's official, you've gone..")
(throw in an ab-lib not on the 3rd chord)
|---------------|
|---------------|
|-------7-----4-|
|-5--7--7--7--4-|
|-5--7--5--7--2-|
|-3--5-----5----|

3rd Progression (First two chords are strummed on the words "..There's no..")
|-----------|
|-----------|
|-7-6-------|
|------5--7-|
|-5-4--5--7-|
|------3--5-|


THEN PLAY PROGRESSIONS 1,2 AND 3 AGAIN WITH THE WORD "UNINVITED" BEING
STRUMMED LIKE THIS:
  UN-IN-VI-TED
D|-7--7--7--7-|
A|-7--7- 7--7-|
E|-5--5--5--5-|


MIDDLE BIT 
|-------------------------------------------------|
|-------------------------------------------------|
|-7--7--9-9-9-11--9---------9-9-9-11-9---7-9-11-9-|
|-7--7----------------9--9------------------------|
|-5--5--7-7-7--9--7---9--9--7-7-7--9-7---5-7--9-7-|
|---------------------7--7------------------------|

End riff of the middle bit. Chords in [] are palm muted.
|--------------------------------------|
|--------------------------------------|
|---------7-----9-11------11-12-11-9-7-|
|--------------------------------------|
|-[5]-[5]---[5]-------[9]--------------|
|--------------------------------------|

SECOND HALF OF THE SONG - AFTER THE SHORT STOP

*Guitar 1*
|-----------------|
|-----------------|
|-777777777777777-|  etc.
|-----------------|
|-----------------|
|-----------------|

*Guitar 2*
|-------------------------------------|
|-------------------------------------|
|-------------------------------------|
|-7-7-7-7-7---------------------------|
|-5-5-5-5-5----5-5-5-5-5----7-7-7-7-7-|
|--------------3-3-3-3-3----5-5-5-5-5-|

then back into the second part of the intro, with the lead guitar playing a 
solo type riff over the top of it:
(~ means let ring, / means slide)
|----------------------------------------------------------------------------
|----------------5-3---------------------7-----------------------5-3-2-7---7-
|-4-6-7~--------------6-7~---6~--4-2~------7-4-2-4-6-3-4-6-7-6-4---------7---
|----------------------------------------------------------------------------
|----------------------------------------------------------------------------
|----------------------------------------------------------------------------

|------|
|-7/9~-|
|------|
|------|
|------|
|------|

Outro
|------------------------|
|------------------------|
|-7--------------7-------| With a variaton of the end riff in the middle
|-7--7--9--5-----7--7--9-| bit being played over the top.
|-5--7--9--5-----5--7--9-|
|----5--7--3--------5--7-|


=====


MAY 16 - Lagwagon

By: Jeff Anderson (RAnderTG@aol.com)

(Guitar 1)  Riff 1A
e|--------------------------------------------------------------------------|
B|--------------------------------------------------------------------------|
G|--------------------------------------------------------------------------|
D|--------------------------------------------------------------------------|
A|-------------------------------------------------------------------------7|
E|10-10-9-10~~-----12-12-9-10~~------12-12-9-10~~-----10-9-7-5--------------|

(Guitar 2) Riff 1B  --Or Just play the octaves if you only have one guitar--
e|--------------------------------------------------------------------------|
B|--------------------------------------------------------------------------|
G|--------------------------------------------------------------------------|
D|12-12-11-12~~----14-14-11-12~~-----14-14-11-12~~--------------------------|
A|--------------------------------------------------------------------------|
E|--------------------------------------------------------------------------|

Riff 2A
e|--------------------------------------------------------------------------|
B|--------------------------------------------------------------------------|
G|--------------------------------------------------------------------------|
D|--------------------------------------------------------------------------| 
A|12-12-12-12-12-12-12--12--12---12--12--12--12--12-12-12--12--12-----------|
E|10-10--9-10-10--9--9--10--10---12--12---9--10--10--9---9-10--10-----------|

Fill 1  (Solo Thingy)
e|--------------------------------------------------------------------------|
B|-------------7-------8----------------------------------------------------|
G|-----7------------------------12p11---------------------------------------|
D|5-5---5-5----5-5-----5-5-----------12p11----------------------------------|
A|--------------------------------------------------------------------------|
E|--------------------------------------------------------------------------|
P.M. every 5 on the D string

Riff 3A  (Verse)  Chords-- D,B,D,F#,G,A
[ Tab from: http://www.guitartabs.cc/tabs/l/lagwagon/may_1_tab.html ]
Fill 2 --Goes inbetween F# and G
e|--------------------------------------------------------------------------|
B|--------------------------------------------------------------------------|
G|-9--7---------------------------------------------------------------------|
D|--------------------------------------------------------------------------|
A|-7--5---------------------------------------------------------------------|
E|--------------------------------------------------------------------------|

Riff 4A  --Breakdown part--
e|--------------------------------------------------------------------------|
B|--------------------------------------------------------------------------|
G|--------------------------------------------------------------------------|
D|--------------------------------------------------------------------------|
A|12-12-----------------------9-------------5--4-4-4-5-5-4------------------|
E|10-10--9-9-9-10-10-9--7-9-9-9-10-10-9--3----------------------------------|


=========


 MAY 16TH - Lagwagon


Okay, this is probably my favorite Lagwagon song, so I really wanted to be 
able to play it. I oticed the existing tab by Mark Norris 
(mnorris11@hotmail.com) was complicated and didnt have yrics, so I tried to 
make it a little easier. Much respect to Mark, I basically used his tab and 
altered it. It's definately not exact, because the song uses 2 guitars and 
it's just plain hard. This tab is meant for 1 guitar.

Intro
|--------------------------------------------------|
|--------------------------------------------------|
|-9-7-6-7-----9-7-6-7-----9-7-6-7-----7-6-4-2------|
|-0-0-0-0-----0-0-0-0-----0-0-0-0-----0-0-0-0------|
|--------------------------------------------------|
|--------------------------------------------------|

|------------------------------------------------------|
|------------------------------------------------------|
|-9-7-6-7-7-7-6-6-6-7-7-7-7--9-7-6-7-7-7-6-6-6-7-7-7-7-|
|-0-0-0-0-0-0-0-0-0-0-0-0-0--0-0-0-0-0-0-0-0-0-0-0-0-0-|
|------------------------------------------------------|
|------------------------------------------------------|

|----------------------------------------------------|
|----------------------------------------------------|
|-9-7-6-7-7-7-6-6-6-7-7-7-7--7-6-4-2-2-2-7-7-7-6-6-6-|
|-0-0-0-0-0-0-0-0-0-0-0-0-0--0-0-0-0-0-0-0-0-0-0-0-0-|
|----------------------------------------------------|
|----------------------------------------------------|

(Change chord when guitar 1 changes - it's easy enough to figure out).
Progression.
|------------|
|------------|
|-7----------|
|-7--9--5--7-|
|-5--9--5--7-|
|----7--3--5-|


D               B
No more waiting on them,
D                      F#
As you rise inside new rooms,
D  C#  G
It's official you've gone,
A
You can live for no one,
D             A             B
Else man, the guilt must be huge
D      C#  G
There's no gain in failure,
A                    D
You succeed at being mine,
      A           B
Yeah, old friend, see you there
D                    A
I will be proud from afar,
D C#  G
I can paint a picture
A
In a moment of
D                             B
Memories and there arent many left,
D C# G
I am extradited,
A A A A
UNINVITED

|-------------------------------------------------|
|-------------------------------------------------|
|-7--7--9-9-9-11--9---------9-9-9-11-9---7-9-11-9-|
|-7--7----------------9--9------------------------|
|-5--5--7-7-7--9--7---9--9--7-7-7--9-7---5-7--9-7-|
|---------------------7--7------------------------|

                         It's just another saturday...

|-------------------------------------------------|
|-------------------------------------------------|
|-7--7--9-9-9-11--9---------9-9-9-11-9---7-9-11-9-|
|-7--7----------------9--9------------------------|
|-5--5--7-7-7--9--7---9--9--7-7-7--9-7---5-7--9-7-|
|---------------------7--7------------------------|

Chords in [] are palm muted.
|--------------------------------------|
|--------------------------------------|
|---------7-----9-11------11-12-11-9-7-|
|--------------------------------------|
|-[5]-[5]---[5]-------[9]--------------|
|--------------------------------------| x2

D              B
Take a step to freedom,
D                               F#
You and her loathing this cruel world,
D   C# G                 A
Take a breath of shelter and exhale,
D         B
Trust and allegience
G A  D                 D D
Liberate yourself from hell

|-------------------------------------------------|
|-------------------------------------------------|
|-7--7--9-9-9-11--9---------9-9-9-11-9---7-9-11-9-|
|-7--7----------------9--9------------------------|
|-5--5--7-7-7--9--7---9--9--7-7-7--9-7---5-7--9-7-|
|---------------------7--7------------------------|

                         It's just another saturday...

|-------------------------------------------------|
|-------------------------------------------------|
|-7--7--9-9-9-11--9---------9-9-9-11-9---7-9-11-9-|
|-7--7----------------9--9------------------------|
|-5--5--7-7-7--9--7---9--9--7-7-7--9-7---5-7--9-7-|
|---------------------7--7------------------------|

                         It's just another saturday...

|-------------------------------------------------|
|-------------------------------------------------|
|-7--7--9-9-9-11--9---------9-9-9-11-9---7-9-11-9-|
|-7--7----------------9--9------------------------|
|-5--5--7-7-7--9--7---9--9--7-7-7--9-7---5-7--9-7-|
|---------------------7--7------------------------|

Outro
|------------------------|
|------------------------|
|-7--------------7-------| With a variaton of the end riff in the middle
|-7--7--9--5-----7--7--9-| bit being played over the top.
|-5--7--9--5-----5--7--9-|
|----5--7--3--------5--7-|


Like I said, it's not exact so if you want to change it and post it again go 
right ahead.

Brad K (bradk82@hotmail.com)


======


Lagwagon - May 16
Tabbed By: mike
EMail: jekins88@msn.com


I.m pretty sure you'll be able to fined the rest of the song so 
i'm just going to give you the solo.

E------------------------------------------------------------------------------------
B------------------------------------------------------------------------------------
G---4-6-77---9-7-67-6----------11--------------------------------------11-9----------
D-7--------------------9-7--------12-9-7-9-11-8-9-11-12-11-9-14-12-11----------------
Comments