Lagwagon - May 16 Chords & Tabs

 

May 16 Chords & Tabs

Lagwagon Chords & Tabs

Version: 2 Type: Tab 0 ratings
1 star 2 stars 3 stars 4 stars 5 stars
comments

May 16 Tab

   
T1: Mark Norris, mnorris11@hotmail.com, Lagwagon, May 16, 10/12/98

S1: No one has tabbed this or any of the other Lagwagon songs i have
submitted, that's why i'm submiting them to Fresh Tabs, even though
they're almost a year old, Song: May 16
Band: Lagwagon
Album: Let's Talk About Feelings
Tabbed By: Mark Norris (mnorris11@hotmail.com)
***Tuning EADGBe***


Intro - First part *Guitar 1*
|--------------------------------------------------|
|--------------------------------------------------|
|-9-7-6-7-----9-7-6-7-----9-7-6-7-----7-6-4-2------|
|-0-0-0-0-----0-0-0-0-----0-0-0-0-----0-0-0-0------|
|--------------------------------------------------|
|--------------------------------------------------|

*Guitar 2*
|---------------------------------------------|
|---------------------------------------------|
|---------------------------------------------|
|-7-7-7-7-----7-7-7-7-----7-7-7-7-----------2-|
|-5-5-5-5-----5-5-5-5-----5-5-5-5-----------0-|
|---------------------------------------------|

Intro - Second Part *Guitar 1*
|------------------------------------------------------|
|------------------------------------------------------|
|-9-7-6-7-7-7-6-6-6-7-7-7-7--9-7-6-7-7-7-6-6-6-7-7-7-7-|
|-0-0-0-0-0-0-0-0-0-0-0-0-0--0-0-0-0-0-0-0-0-0-0-0-0-0-|
|------------------------------------------------------|
|------------------------------------------------------|

|----------------------------------------------------|
|----------------------------------------------------|
|-9-7-6-7-7-7-6-6-6-7-7-7-7--7-6-4-2-2-2-7-7-7-6-6-6-|
|-0-0-0-0-0-0-0-0-0-0-0-0-0--0-0-0-0-0-0-0-0-0-0-0-0-|
|----------------------------------------------------|
|----------------------------------------------------|

Guitar 2 Plays these chords under the main riff.
(Change chord when guitar 1 changes - it's easy enough to figure out).
Progression.
|------------|
|------------|
|-7----------|
|-7--9--5--7-|
|-5--9--5--7-|
|----7--3--5-|


Verse (Both Guitars)
1st Progression, then play the second progression at the end of the
first bar
|------------|-------|
|------------|-------|
|-7--2--7----|-4-7-6-|
|-7--2--7--4-|-------|
|-5--4--5--4-|-2-5-4-|
|----------2-|-------|
[ Tab from: http://www.guitartabs.cc/tabs/l/lagwagon/may_16_tab_ver_2.html ]
2nd Progression (Starts on "..It's official, you've gone..")
(throw in an ab-lib not on the 3rd chord)
|---------------|
|---------------|
|-------7-----4-|
|-5--7--7--7--4-|
|-5--7--5--7--2-|
|-3--5-----5----|

3rd Progression (First two chords are strummed on the words "..There's
no..")
|-----------|
|-----------|
|-7-6-------|
|------5--7-|
|-5-4--5--7-|
|------3--5-|


THEN PLAY PROGRESSIONS 1,2 AND 3 AGAIN WITH THE WORD "UNINVITED" BEING
STRUMMED LIKE THIS:
  UN-IN-VI-TED
D|-7--7--7--7-|
A|-7--7- 7--7-|
E|-5--5--5--5-|


MIDDLE BIT 
|-------------------------------------------------|
|-------------------------------------------------|
|-7--7--9-9-9-11--9---------9-9-9-11-9---7-9-11-9-|
|-7--7----------------9--9------------------------|
|-5--5--7-7-7--9--7---9--9--7-7-7--9-7---5-7--9-7-|
|---------------------7--7------------------------|

End riff of the middle bit. Chords in [] are palm muted.
|--------------------------------------|
|--------------------------------------|
|---------7-----9-11------11-12-11-9-7-|
|--------------------------------------|
|-[5]-[5]---[5]-------[9]--------------|
|--------------------------------------|

SECOND HALF OF THE SONG - AFTER THE SHORT STOP

*Guitar 1*
|-----------------|
|-----------------|
|-777777777777777-|  etc.
|-----------------|
|-----------------|
|-----------------|

*Guitar 2*
|-------------------------------------|
|-------------------------------------|
|-------------------------------------|
|-7-7-7-7-7---------------------------|
|-5-5-5-5-5----5-5-5-5-5----7-7-7-7-7-|
|--------------3-3-3-3-3----5-5-5-5-5-|

then back into the second part of the intro, with the lead guitar
playing a 
solo type riff over the top of it:
(~ means let ring, / means slide)
|----------------------------------------------------------------------------
|----------------5-3---------------------7-----------------------5-3-2-7---7-
|-4-6-7~--------------6-7~---6~--4-2~------7-4-2-4-6-3-4-6-7-6-4---------7---
|----------------------------------------------------------------------------
|----------------------------------------------------------------------------
|----------------------------------------------------------------------------

|------|
|-7/9~-|
|------|
|------|
|------|
|------|

Outro
|------------------------|
|------------------------|
|-7--------------7-------| With a variaton of the end riff in the
middle
|-7--7--9--5-----7--7--9-| bit being played over the top.
|-5--7--9--5-----5--7--9-|
|----5--7--3--------5--7-|

Comments