Lagwagon - May 16 Chords & Tabs

 

May 16 Chords & Tabs

Lagwagon Chords & Tabs

Version: 1 Type: Bass Tab

May 16 Bass Tab

LAGWAGON
MAY 16

(EADG)

> means play 8 times

Intro (x1)
|---------------------------------|
|---------------------------------|
|-5555-----5555-----5555-----5420-|
|---------------------------------|
  ....     ....     ....

then (x2)
|-------------------------|
|-------------------------|
|-2>>-1>>-2>>-1>-12221-11-|
|-------------------------|

Rest (guitar palm mute)

Verse (x2)
|-----------------------------------|---------|             |-------------|
|-----------------------------------|---------| second time |-------------|
|-5>>-2>>-5>>-------------5>>-------|---------|  play this  |-------------|
|-------------2>>-3>>-5>>-----5>>---|-3>>-5>>-|   instead   |-3>>-5-5-5-5-|

Chorus (x2)
|------------------------------------|
|------------------------------------|
|-5-4--777-9-7-----777-9-7--5-7--9-7-| 
|--------------7-5-------------------|

Interlude (guitars and drums)
[ Tab from: http://www.guitartabs.cc/tabs/l/lagwagon/may_16_btab.html ]
Verse (x2)
|-----------------------------------|---------|             |-----------|
|-----------------------------------|---------| second time |-----------|
|-5>>-2>>-5>>-------------5>>-------|---------|  play this  |-----------|
|-------------2>>-3>>-5>>-----5>>---|-3>>-5>>-|   instead   |-3>>-5-5-5-|

Chorus
|------------------------------------|
|------------------------------------|
|-5-4--777-9-7-----777-9-7--5-7--9-7-| 
|--------------7-5-------------------|x2

|-------------------------------|
|-------------------------------|
|-5-4--777-9-7-----777-9-7--5-7-| 
|--------------7-5--------------|x1

Bridge
|----------------------------|
|----------------------------|
|-55555----------------------|
|--------55555--33333--55555-|x3

|-------|
|-------|
|-55555-|
|-------|x1

Break
then
|---------------------|
|---------------------|
|-55555---------------|
|--------55555--33333-|x1
                                                  
Solo (x2)
|-------------------------|
|-------------------------|
|-2>>-1>>-2>>-1>-12221-11-|
|-------------------------|

Outro
|-----------| 
|-----------| 
|-2>>-1>-2~-| 
|-----------|