Lagwagon - Know It All Chords & Tabs

 

Know It All Chords & Tabs

Lagwagon Chords & Tabs

Version: 2 Type: Bass Tab 0 ratings
1 star 2 stars 3 stars 4 stars 5 stars
comments

Know It All Bass Tab

Song:KNOW IT ALL
Band:LAGWAGON
Album:TRASHED
tabbed by:JASON 

INTRO
G]----------------------------------------------------------------------
D]-9-11-9-13-11-13-14-13-14---8-9-8---8-8-9-8-9-11-9-13-11-13-14-13-14--
A]-----------------------------------9-------7--------------------------------
---
E]----------------------------------------------------------------------

-------------------------------------------------------------------------
---8-9-8---8-8-11-8--9-11-9-13-11-13-14-13-14---8-9-8---8-8-9-8--9-11-9--
-9-------7-----------------------------------------------9-------7------------
------
-------------------------------------------------------------------------

------------------]
-13-11-13-14-13---]
--------------------9-]
------------------]
[ Tab from: http://www.guitartabs.cc/tabs/l/lagwagon/know_it_all_btab_ver_2.html ]
VERSE
G]-----------------------------------------------------------------]
D]-----------------------------------------------------------------]
A]-7>-9>-7>-9>-7>-9>-14>-11>-7>-9>-7>-9>-7>-9>-14>-7-7-6-6-4-4-1-1-]
E]-----------------------------------------------------------------]

PRE-CHORUS
G]---------------------------------------------------------------]
D]----------------------9>-11>-13>-9-9-11>-13>-9-9-11>-13>-------]
A]-2>-------6>-7>---------------------------------------------------7>-9>-]
E]----2>-4>-------7>-2>------------------------------------------]

CHORUS
G]----------------------------------]
D]-------------9>----------------------]
A]-2>-6>-7>----6>-7>-9>-2>-4>-6>-7>-]
E]----------------------------------]

VERSE

PRE-CHORUS#2
G]----------------------------------------------------------------------------
----------]
D]------------------------------9>-11>-13>-9-9-11>-13>-9-9-11>-13>---------]
A]-2>-------6>-7>----7>-9>------------------------------------------------7>-9
>-]
E]----2>-4>-------7>----------------------------------------------------------
-------]

CHORUS
INTRO

OUTRO
G]---------------]
D]-9-8-6-4-2-4---]
A]---------------2-]
E]---------------]


Comments