Lagwagon - I Must Be Hateful Chords & Tabs

 

I Must Be Hateful Chords & Tabs

Lagwagon Chords & Tabs

Version: 2 Type: Tab 0 ratings
1 star 2 stars 3 stars 4 stars 5 stars
comments

I Must Be Hateful Tab

   
-----------------------------------------------------------------------------
			     I Must Be Hateful - Lagwagon
-----------------------------------------------------------------------------
Tabbed by:NOFxMIke	
Email:NO!

Tuning:Standard 
Intro
Riff A                                  Riff B   Play these 4 notes twice
Guitar 1:crunch               Etc...then          |------|  
e|--------------------0---------------0|------------------------------|
B|-------4--------2-----------4-----2--|-------2-----4---2-----4---2-5|
G|----4-------4------------4------4----|---3--------------------------|
D|-------------------------------------|-4---4-----4---4-----4----4---|
A|-------------------------------------|------------------------------|
E|-------------------------------------|------------------------------|

Guitar 2:crunch (beat mirrors guitar one)
e|--------------------------------------------------------------------|
B|-------0--------0---0-------0------0---0----------------------------|
G|----4-------4-----4------4------4----4------------------------------|
D|--------------------------------------------------------------------|
A|--------------------------------------------------------------------|
E|--------------------------------------------------------------------|

Band Enters:
    B5     G#5    E5     F#5
e|----------------------------|
B|----------------------------|
G|----------------9-----------|
D|--9------6------9------4----|
A|--9------6------7------4----|
E|--7------4-------------2----|

Guitar FeedBack:random feedback(sampled behind intro)
 notes indicate implied tonality
          B              F#
e|-------(7)------------(2)--------------|
B|---------------------------------------|
G|---------------------------------------|
D|---------------------------------------|
A|---------------------------------------|
E|---------------------------------------|

Verse 1
   I can't make the damn phone ring        
e|--------------------------------|
B|--------------------------------|
G|--------------------------------|
D|-9--9-9--9--9-9--9--9-9--9--9-9-|
A|-9--9-9--9--9-9--9--9-9--9--9-9-|
E|-7--7-7--7--7-7--7--7-7--7--7-7-|

It's simply pathetic if I call you anymore
e|--------------------------------|
B|--------------------------------|
G|--------------------------------|
D|-9--9-9--9--9-9--9--9-9--9--9-9-|
A|-9--9-9--9--9-9--9--9-9--9--9-9-|
E|-7--7-7--7--7-7--7--7-7--7--7-7-|
 
I can't figure it now We tallied our scores  I got knocked out
e|-------------------------------------------------------|
B|-------------------------------------------------------|
G|--------------------9--9-9--9--9-9--9--9-9--9--9-9--9-9|
D|-6--6-6--6--6-6--6--9--9-9--9--9-9--9--9-9--9--9-9--9-9|
A|-6--6-6--6--6-6--6--7--7-7--7--7-7--7--7-7--7--7-7--7-7|
E|-4--4-4--4--4-4--4-------------------------------------|

w/ riff A  (heavily distorted --staccato)
e|--------------------------------|
B|--------------------------------|
G|--------------------------------|
D|-9--9-9--9--9-9--9--9-9--9--9-9-|
A|-9--9-9--9--9-9--9--9-9--9--9-9-|
E|-7--7-7--7--7-7--7--7-7--7--7-7-|

Verse 2
I know when you come to town 
e|--------------------------------|
B|--------------------------------|
G|--------------------------------|
D|-9--9-9--9--9-9--9--9-9--9--9-9-|
A|-9--9-9--9--9-9--9--9-9--9--9-9-|
E|-7--7-7--7--7-7--7--7-7--7--7-7-|

I know where you drop your dime and whom it's for 
e|--------------------------------|
B|--------------------------------|
G|--------------------------------|
D|-9--9-9--9--9-9--9--9-9--9--9-9-|
A|-9--9-9--9--9-9--9--9-9--9--9-9-|
E|-7--7-7--7--7-7--7--7-7--7--7-7-|

I'm not good enough to time your cup of coffee 15 years...
e|-------------------------------------------------------|
B|-------------------------------------------------------|
G|--------------------9--9-9--9--9-9--9--9-9--9--9-9--9-9|
D|-6--6-6--6--6-6--6--9--9-9--9--9-9--9--9-9--9--9-9--9-9|
A|-6--6-6--6--6-6--6--7--7-7--7--7-7--7--7-7--7--7-7--7-7|
E|-4--4-4--4--4-4--4-------------------------------------|

w/ riff A (Distorted)

          was long enough 
e|---------------------------------|
B|---------------------------------|
G|---------------------------------|
D|-9--9-9--9--9-9--9--9-9--9--9-9-4|
A|-9--9-9--9--9-9--9--9-9--9--9-9-4|
E|-7--7-7--7--7-7--7--7-7--7--7-7-2|

Chorus #1:
      Look at Me i'm and old colleague Another hard knocks day acquaintance
e|--------------------------------------------------------------------------|
B|-------------------------------------9------------------------------------|
G|-----------------------8-------------9---9-9-9--9-9-9---------------------|
D|-9-----4---------------8-----6-------9---9-9-9--9-9-9------4---4-4-4-4-4-4|
A|-9-----4---------------6-----6-------7---7-7-7--7-7-7------4---4-4-4-4-4-4|
E|-7-----2---------------------4-----------------------------2---2-2-2-2-2-2|
                                                             PM|-----------|
      Finally you are free of me It must be true or you'd give a minute 
e|--------------------------------------------------------------------------|
B|-------------------------------------9------------------------------------|
G|-----------------------8-------------9---9-9-9--9-9-9---------------------|
D|-9-----4---------------8-----6-------9---9-9-9--9-9-9------4---4-4-4-4-4-4|
A|-9-----4---------------6-----6-------7---7-7-7--7-7-7------4---4-4-4-4-4-4|
E|-7-----2---------------------4-----------------------------2---2-2-2-2-2-2|
[ Tab from: http://www.guitartabs.cc/tabs/l/lagwagon/i_must_be_hateful_tab_ver_2.html ]
       But it's always my fault          Always it's your forgive-
e|-------------------------------------------------------------|
B|-------------------------------------------------------------|
G|----------------------------4--4-4-4-4--4-4-4-4--------------|
D|-2--2-2-2-2-2--4--4-4-4-4-4-4--4-4-4-4--4-4-4-4--4--4-4-4-4-4|
A|-2--2-2-2-2-2--4--4-4-4-4-4-2--2-2-2-2--2-2-2-2--4--4-4-4-4-4|
E|-0--0-0-0-0-0--2--2-2-2-2-2----------------------2--2-2-2-2-2|

  ness      This unbalanced resolve      I must be hateful 
e|-------------------------------------------------------------|
B|-------------------------------------------------------------|
G|----------------------------4--4-4-4-4--4-4-4-4--8--8-8-8-8-8|
D|-2--2-2-2-2-2--4--4-4-4-4-4-4--4-4-4-4--4-4-4-4--8--8-8-8-8-8|
A|-2--2-2-2-2-2--4--4-4-4-4-4-2--2-2-2-2--2-2-2-2--6--6-6-6-6-6|
E|-0--0-0-0-0-0--2--2-2-2-2-2----------------------------------|

    So I hang up the  phone        Call it a small sacrifice  
e|-------------------------------------------------------|
B|-------------------------------------------------------|
G|---9--9-9-9-9-9--9--11-11-11-11-11--4--4-4-4-4--4------|
D|---9--9-9-9-9-9--9--11-11-11-11-11--4--4-4-4-4--4-4-4-4|
A|---7--7-7-7-7-7--7--9--9--9--9--9---2--2-2-2-2--2-4-4-4|
E|--------------------------------------------------2-2-2|

               You still hear me now 
e|---------------------------------------|
B|---------------------------------------|
G|---------------------------------------|
D|-4--4-4-4-4-4--9--9-9--9--6-6--6----2--|
A|-4--4-4-4-4-4--9--9-9--9--6-6--6----2--|
E|-2--2-2-2-2-2--7--7-7--7--4-4--4----0--|

w/ INtro(riff a+b)

    B5     G#5    E5     F#5
e|----------------------------|
B|----------------------------|
G|----------------9-----------|
D|--9------6------9------4----|
A|--9------6------7------4----|
E|--7------4-------------2----|

Verse 3:
Dear you, the vinyl it was blue 
e|--------------------------------|
B|--------------------------------|
G|--------------------------------|
D|-9--9-9--9--9-9--9--9-9--9--9-9-|
A|-9--9-9--9--9-9--9--9-9--9--9-9-|
E|-7--7-7--7--7-7--7--7-7--7--7-7-|

Stalking poor Blake commiserating drunks at sea
e|--------------------------------|
B|--------------------------------|
G|--------------------------------|
D|-9--9-9--9--9-9--9--9-9--9--9-9-|
A|-9--9-9--9--9-9--9--9-9--9--9-9-|
E|-7--7-7--7--7-7--7--7-7--7--7-7-|

Do you remember when Jawbreaker rocked "The boat"? I'm sure you do...
e|-------------------------------------------------------|
B|-------------------------------------------------------|
G|--------------------9--9-9--9--9-9--9--9-9--9--9-9--9-9|
D|-6--6-6--6--6-6--6--9--9-9--9--9-9--9--9-9--9--9-9--9-9|
A|-6--6-6--6--6-6--6--7--7-7--7--7-7--7--7-7--7--7-7--7-7|
E|-4--4-4--4--4-4--4-------------------------------------|

         and don't
e|---------------------------------|
B|---------------------------------|
G|---------------------------------|
D|-9--9-9--9--9-9--9--9-9--9--9-9-4|
A|-9--9-9--9--9-9--9--9-9--9--9-9-4|
E|-7--7-7--7--7-7--7--7-7--7--7-7-2|

Chorus #2:

      Look at me. I'm an old fly buddy Just a blue coach class acquaintance 
e|--------------------------------------------------------------------------|
B|-------------------------------------9------------------------------------|
G|-----------------------8-------------9---9-9-9--9-9-9---------------------|
D|-9-----4---------------8-----6-------9---9-9-9--9-9-9------4---4-4-4-4-4-4|
A|-9-----4---------------6-----6-------7---7-7-7--7-7-7------4---4-4-4-4-4-4|
E|-7-----2---------------------4-----------------------------2---2-2-2-2-2-2|
                                                              PM|-----------|
 Finally you are free of me It must be true 'cause it only makes sense  
e|--------------------------------------------------------------------------|
B|-------------------------------------9------------------------------------|
G|-----------------------8-------------9---9-9-9--9-9-9---------------------|
D|-9-----4---------------8-----6-------9---9-9-9--9-9-9------4---4-4-4-4-4-4|
A|-9-----4---------------6-----6-------7---7-7-7--7-7-7------4---4-4-4-4-4-4|
E|-7-----2---------------------4-----------------------------2---2-2-2-2-2-2|

    I can still see you now             Pictures are in every town 
e|-------------------------------------------------------------|
B|-------------------------------------------------------------|
G|----------------------------4--4-4-4-4--4-4-4-4--------------|
D|-2--2-2-2-2-2--4--4-4-4-4-4-4--4-4-4-4--4-4-4-4--4--4-4-4-4-4|
A|-2--2-2-2-2-2--4--4-4-4-4-4-2--2-2-2-2--2-2-2-2--4--4-4-4-4-4|
E|-0--0-0-0-0-0--2--2-2-2-2-2----------------------2--2-2-2-2-2|

I can still write it down              "I must be hateful"
e|-------------------------------------------------------------|
B|-------------------------------------------------------------|
G|----------------------------4--4-4-4-4--4-4-4-4--8--8-8-8-8-8|
D|-2--2-2-2-2-2--4--4-4-4-4-4-4--4-4-4-4--4-4-4-4--8--8-8-8-8-8|
A|-2--2-2-2-2-2--4--4-4-4-4-4-2--2-2-2-2--2-2-2-2--6--6-6-6-6-6|
E|-0--0-0-0-0-0--2--2-2-2-2-2----------------------------------|

 I can hang up the phone               Even at those lofty  
e|-------------------------------------------------------|
B|-------------------------------------------------------|
G|---9--9-9-9-9-9--9--11-11-11-11-11--4--4-4-4-4--4------|
D|---9--9-9-9-9-9--9--11-11-11-11-11--4--4-4-4-4--4-4-4-4|
A|---7--7-7-7-7-7--7--9--9--9--9--9---2--2-2-2-2--2-4-4-4|
E|--------------------------------------------------2-2-2|  

  heights       You still hear me now
e|---------------------------------------|
B|---------------------------------------|
G|---------------------------------------|
D|-4--4-4-4-4-4--9--9-9--9--6-6--6----2--|
A|-4--4-4-4-4-4--9--9-9--9--6-6--6----2--|
E|-2--2-2-2-2-2--7--7-7--7--4-4--4----0--|Pick slide

w/ intro(riff a + B)
    B5     G#5    E5     F#5
e|----------------------------|
B|----------------------------|
G|----------------9-----------|
D|--9------6------9------4----|
A|--9------6------7------4----|
E|--7------4-------------2----|

| /  slide up
| \  slide down
| h  hammer-on
| p  pull-off
| ~  vibrato
| +  harmonic
| x  Mute note
|() pitch of feedback
Comments