Lagwagon - E Dagger Chords & Tabs

 

E Dagger Chords & Tabs

Lagwagon Chords & Tabs

Version: 1 Type: Tab 0 ratings
1 star 2 stars 3 stars 4 stars 5 stars
comments

E Dagger Tab

   
Song: E Dagger
Artist: Lagwagon
Album: Blaze
Track: 2
Tabbed By: Terry

This isn’t in the right tuning, but if you’re smart you can figure it out. 

Riff 1
E----------------------------------------------------------
B----------------------------------------------------------
G-7777777777777777----------------3333333355555555777777777
D-777777777777777755555555555555553333333355555555777777777
A-555555555555555555555555555555551111111133333333555555555
E-----------------3333333333333333-------------------------


Riff 2
E----------------------------------------------------------
B----------------------------------------------------------
G-777777777777777744444444444444443333333355555555777777777
D-777777777777777744444444444444443333333355555555777777777
A-555555555555555522222222222222221111111133333333555555555
E----------------------------------------------------------


Riff 3
E----------------------------------------------------------
B----------------------------------------------------------
G-----------------77777777--------4444444433333333---------
D-555555557777777777777777444444445555555555555555777777777
A-555555557777777755555555444444445555555555555555777777777
E-3333333355555555--------222222223333333333333333555555555
[ Tab from: http://www.guitartabs.cc/tabs/l/lagwagon/e_dagger_tab.html ]
The next verse is simply playing Riff 1 with muted notes in between the first two
chords, then playing riff 2 like this
Riff 1/2 variation
E----------------------------------------------------------
B----------------------------------------------------------
G-777777777-------44444444444444443333333355555555777777777
D-777777777-5-4---44444444444444443333333355555555777777777
A-555555555-----7-22222222222222221111111133333333555555555
E----------------------------------------------------------

Closing Chorus
E----------------------------------------------------------
B----------------------------------------------------------
G-----7--------9------------------7------------------------
D-----7--------9--------5---------7------------------------
A-----5--------7--------5---------5------------------------
E-----------------------3----------------------------------

Closing Riff
E---5--7//4--5//3--3//2-----5--7//4--5//3------------------
B------------------------3---------------------------------
G----------------------------------------------------------
D----------------------------------------------------------
A----------------------------------------------------------
E----------------------------------------------------------

End
E----------------------------------------------------------
B----------------------------------------------------------
G-----------------------------------7----------------------
D--5---------------7----------------7----------------------
A--5---------------7----------------5----------------------
E--3---------------5---------------------------------------
“we are always here to make you laugh”


Order
Riff 1 x2
Riff 2 x2
Riff 3
Riff 1/2 Variation
Riff 3
Closing Chorus x2
Closing Chorus/Closing Riff x2
Ending
Comments