Lagwagon - Confession Chords & Tabs

 

Confession Chords & Tabs

Lagwagon Chords & Tabs

Version: 2 Type: Bass Tab 0 ratings
1 star 2 stars 3 stars 4 stars 5 stars
comments

Confession Bass Tab

CONFESSION - Lagwagon

blythe@pathcom.com
www.geocities.com/SunsetStrip/Backstage/1711

>Means Strum

INTRO
G]-------------------------------------]
D]-------------------------------------]
A]-5>-2>----3>-5>-2>-----------5-4-7-5-]
E]-------5>----------5>-3>-3-3---------]
[ Tab from: http://www.guitartabs.cc/tabs/l/lagwagon/confession_btab_ver_2.html ]
VERSEx2
G]--------------------------------------]
D]--------------------------------------]
A]-5>----2>----5>-7-7-7-9-9-9-7-7-7-10>-]
E]----5>----3>--------------------------]

CHORUSx2
G]-------------|-------------------]
D]-------------|-------------------]
A]-------5>-2>-|-------5>----------]
E]-3>-5>-------|-3>-5>----2>-3--5--]

VERSE
CHORUS

SOLO
G]-------------------------]
D]-------------------------]
A]----5>-------5>----------]
E]-3>----5>-3>----7>-5>-3>-]

LAST LINE OF CHORUS(end)
G]----------------------]
D]----------------------]
A]-5>-12-12-12-4-4-4-5>-]
E]----------------------]





Comments