Lagwagon - Choke Chords & Tabs

 

Choke Chords & Tabs

Lagwagon Chords & Tabs

Version: 2 Type: Bass Tab 0 ratings
1 star 2 stars 3 stars 4 stars 5 stars
comments

Choke Bass Tab

   
Lagwagon - Choke
Transcrit par Clovis Hout
Email: larhouet@microplus.ca

J'ai retranscrit seulement le dbut de la chanson parce que le
reste, 'est pas mal semblable  la guitare. S'il y a des erreurs, 
e-mailez moi!!




Tune down (1/2) step

G------------------------------------------------
D--7---------7-----7-----10------10---10---------
A-----7--------7-----------10-----10-------------
E--------5-------5------------8-----8------------

G------------------------------------------------
D--11-------11----11------9-------9-----9--------
A-----11------11------------9-------9------------
E--------9-------9------------7-------7----------
[ Tab from: http://www.guitartabs.cc/tabs/l/lagwagon/choke_btab_ver_2.html ]
G------------------------------------------------
D--7---------7-----7-----10------10---10---------
A-----7--------7-----------10-----10-------------
E--------5-------5------------8-----8------------

G------------------------------------------------
D--11-------11----11------9-------9-----9--------
A-----11------11------------9-------9------------
E--------9-------9------------7-------7----------

G------------------------------------------------
D--7---------7-----7-----10------10---10---------
A-----7--------7-----------10-----10-------------
E--------5-------5------------8-----8------------

G------------------------------------------------
D--11-------11----11------4-------4-----4--------
A-----11------11------------4-------4------------
E--------9-------9------------2-------2----------

G------------------------------------------------
D---2------2------2-------4-------4-----4----2---
A-----2------2--------------4-------4------------
E-------0------0--------------2-------2----------




Comments