Lagwagon - Brown Eyed Girl Chords & Tabs

 

Brown Eyed Girl Chords & Tabs

Lagwagon Chords & Tabs

Version: 5 Type: Tab 0 ratings
1 star 2 stars 3 stars 4 stars 5 stars
comments

Brown Eyed Girl Tab

   
Intro:
e-|--------------8-10-12-10-8-----------------------|
B-|-8-10-12-10-8--------------8-10-12-10-8-7-7-8-10-|
G-|-------------------------------------------------|
D-|-------------------------------------------------|
A-|-------------------------------------------------|
E-|-------------------------------------------------|

Verse:
e-|-----------------------------------------------------------------|
B-|-----------------------------------------------------------------|
G-|-----------------------------------------------------------------|
D-|-----------------5-5-5-5-5-5-5-5-----------------7-7-7-7-7-7-7-7-|
A-|-5-5-5-5-5-5-5-5-3-3-3-3-3-3-3-3-5-5-5-5-5-5-5-5-5-5-5-5-5-5-5-5-|
E-|-3-3-3-3-3-3-3-3-----------------3-3-3-3-3-3-3-3-----------------|
[ Tab from: http://www.guitartabs.cc/tabs/l/lagwagon/brown_eyed_girl_tab_ver_5.html ]
Chorus:
e-|-------------------------------------------------------------------------
B-|-------------------------------------------------------------------------
G-|---------------------------------12-14-12-11-9-7-9-----------------------
D-|-5-5-5-5-5-5-5-5-7-7-7-7-7-7-7-7-xx-xx-xx-xx-x-x-x-5-5-5-5-5-5-5-5-7-7-7-
A-|-3-3-3-3-3-3-3-3-5-5-5-5-5-5-5-5-10-12-10--9-7-5-7-3-3-3-3-3-3-3-3-5-5-5-
E-|-------------------------------------------------------------------------

e-|-------------------------------------|
B-|-------------------------------------|
G-|-------------------------------------|
D-|-7-7-7-7-7-----------------7-7-7-7-7-|
A-|-5-5-5-5-5-5-5-5-5-5-5-5-5-5-5-5-5-5-|
E-|-----------3-3-3-3-3-3-3-3-----------|

Fade out:
e-|-------------------------------------------------------|
B-|-------------------------------------------------------|
G-|-12-12-12-12-11-12-12-12-12-11-12-12-12-12-11-7-7-7-11-|
D-|-xx-xx-xx-xx-xx-xx-xx-xx-xx-xx-xx-xx-xx-xx-xx-x-x-x-xx-|
A-|-10-10-10-10--9-10-10-10-10--9-10-10-10-10--9-5-5-5--9-|
E-|-------------------------------------------------------|
Comments