Lagwagon - Brown Eyed Girl Chords & Tabs

 

Brown Eyed Girl Chords & Tabs

Lagwagon Chords & Tabs

Version: 4 Type: Tab 0 ratings
1 star 2 stars 3 stars 4 stars 5 stars
comments

Brown Eyed Girl Tab

                                   intro
E---------8-10-12-------------------------------------------------
B-8-10-12---------8-10-12-----------------------------------------x2
G-------------------------11-11-12-14-----------------------------
D-----------------------------------------------------------------
A-----------------------------------------------------------------
E-----------------------------------------------------------------
                                verse
E-----------------------------------------------------------------
B-----------------------------------------------------------------
G----------55555555-----------77777777----------------------------
D-55555555-55555555-555555555-77777777----------------------------
A-55555555-33333333-555555555-55555555----------------------------
E-33333333----------333333333------------------------------------- 
                                 chorus
E-----------------------------------------------------------------
B-----------------------------------------------------------------
G-----------------7-9-7-6-4---------------------------------------
D-555555-7777777--5-7-5-4-2-4-5-555555-7777777--------------------
A-555555-7777777------------2-3-555555-7777777--------------------
E-333333-5555555----------------333333-5555555--------------------
[ Tab from: http://www.guitartabs.cc/tabs/l/lagwagon/brown_eyed_girl_tab_ver_4.html ]
Comments