Lagwagon - Brown Eyed Girl Chords & Tabs

 

Brown Eyed Girl Chords & Tabs

Lagwagon Chords & Tabs

Version: 2 Type: Tab 1 rating
1 star 2 stars 3 stars 4 stars 5 stars
comments

Brown Eyed Girl Tab

Artist: Lagwon
Title: Brown eyed girl (punk cover)
Tabbed by: Add

Intro:
E----------------------8-10-12-10-8-----------------------------------------------
B-8-10-12-10-8---------------------8-10-12-10-8-7-7-8-10----------------
G-----------------------------------------------------------------------------------------
D-----------------------------------------------------------------------------------------
A-----------------------------------------------------------------------------------------
E-----------------------------------------------------------------------------------------
[ Tab from: http://www.guitartabs.cc/tabs/l/lagwagon/brown_eyed_girl_tab_ver_2.html ]
Verse one:-
E--------------------------------------------------------------------------------------------------------
B---------------------------------------------------------------------------------------------------------
G---------------------------5-5-5-5-5-5-5-5---------------------------7-7-7-7-7-7-7-7------
D-5-5-5-5-5-5-5-5---5-5-5-5-5-5-5-5--5-5-5-5-5-5-5-5--7-7-7-7-7-7-7-7------
A-5-5-5-5-5-5-5-5---3-3-3-3-3-3-3-3--5-5-5-5-5-5-5-5---5-5-5-5-5-5-5-5------
E-3-3-3-3-3-3-3-3----------------------------3-3-3-3-3-3-3-3-----------------------------


E-----------------------------------------------------------------------------------------
B-----------------------------------------------------------------------------------------
G-5-5-5-5-5-5-5-5---7-7-7-7-7-7-7-7---12---14---12---11---9-------
D-5-5-5-5-5-5-5-5---7-7-7-7-7-7-7-7---12---14---12---11---9----------
A-3-3-3-3-3-3-3-3---5-5-5-5-5-5-5-5---10---12---10----9----7---------
E-----------------------------------------------------------------------------------------

E-----------------------------------------------------------------------------------------
B-----------------------------------------------------------------------------------------
G-----------------------------------------------------------------------------------------
D-5-5-5-5---7-7-7-7-------------------------------------------------------------------
A-5-5-5-5---7-7-7-7-------------------------------------------------------------------
E-3-3-3-3---5-5-5-5------------------------------------------------------------------

Repeat!

Questions Comments corrections? email at Xtremer201@aol.com
-




Comments