Lagwagon - Brown Eyed Girl Chords & Tabs

 

Brown Eyed Girl Chords & Tabs

Lagwagon Chords & Tabs

Version: 1 Type: Bass Tab 0 ratings
1 star 2 stars 3 stars 4 stars 5 stars
comments

Brown Eyed Girl Bass Tab

"Brown Eyed Girl" - Lagwagon
 
submitted by Nero blue_sincere@hotmail.com 
 

              fig. 1                                                    (x5)
G:---------|----------------------------------------------------------------|
D:---------|*-----------------2-2--4-4--5----------------------------------*|
A:---------|*-----2--3-----3--------------------2--4-----5-----------------*|
E:-0--2--3-|---3----------------------------------------------0----1----2---|
 

G:---------------------------------------------------------------------------|
D:---------------------------2-2-4-4--5--------------------------------------|
A:-------------2--2--3----3-------------------2-4-4--5-----5-----0--2--3-----|
E:--3-------3----------------------------------------------------------------|
 

G:---------------------------------------------------------------------------|
D:------------------------4---5--------------2-----2-------------------------|
A:--0--3--4--5----5----X--------------2---5-------------0--2--3----3---0--4--|
E:---------------------------------3-----------------------------------------|
 
                                                       % Sign
 
G:-----------------------------------------------------|-------------|
D:------------5-------------------------------3-----4--|-fig-1--x3---|
A:5---5---/7-----7------2----3--0--5----5--5-----5-----|-------------|
E:------------------3----------------------------------|-------------|
 
[ Tab from: http://www.guitartabs.cc/tabs/l/lagwagon/brown_eyed_girl_btab.html ]
G:---------------------------------------------------------------------------|
D:-------------------------2---4---5-----------------------------------------|
A:------------2---3----3----------------2--4---5---5---0--2--3-----3--0--3--4|
E:--3------3-----------------------------------------------------------------|
 
 
 
G:---------------------------------------------------------------------------|
D:---------------------------5--2--------2-----------2-----------------------|
A:--5---5--5---------2---5------------2-----0--2--3-----0--4--5--------------|
E:------------0--3-------------------------------------------------2----5---2|
 

                                                            go to coda *0*
                                                            last time
 
G:---------------------------------------------------7--------7-----7------|-|
D:---------------------------------7-------------7------7------------------|-|
A:-----2----3--3--4--5---5--5---5------r------5------------5---------------|-|
E:--3------------------------------------------------------------------0--2/3|
 

G:---------------------------------------------------------------------------|
D:--------------------------------------------------------2--2--3--3--4--4--5|
A:------------0--2--3-----------------------2----3--4--5---------------------|
E:---3-----3-----------0---1----2----3---3-----------------------------------|
 
 
 
G:---------------------------------------------------------------------------|
D:----5---------------------2-----4--5--------------------------------------5|
A:--------2---5---3--3---3-----3--------2----3----4---5--5---5--5--5----5----|
E:---------------------------------------------------------------------------|
 
 
 
G:---------------------------------------------------------------------------|
D:---5--5---5--5---5--5---5--5---5--5---5--5---5--5--------------------------|
A:---------------------------------------------------7--5-\--------------2--3|
E:----------------------------------------------------------3---------3------|
 
                              DS % al Coda *0*
 
G:----------------------------------------------|
D:-----2--4--5----r---------------------5-------|
A:--3--------------------2---5----5-/7-----7----|
E:--------------------3-------------------------|
 

    CODA *0*                                           repeat and
                                                       fade...
G:------------------------------------------------------------------|
D:*-----------------------2--3--4--5-------------------------------*|
A:*-------------2---3--3--------------2----3--4--5-----------0-----*|
E:---3---3---3--------------------------------------0--2--------2---|
 


Comments