Lagwagon - Black Eyes Chords & Tabs

 

Black Eyes Chords & Tabs

Lagwagon Chords & Tabs

Version: 2 Type: Bass Tab 0 ratings
1 star 2 stars 3 stars 4 stars 5 stars
comments

Black Eyes Bass Tab

   
Song:  bLAck EYeS
Band:         LaGwAGON
Album:  HOSS
tabbed by:  jUSTINsLATER  punkdork@hotmail.com


INtRO
G:---------------------------------------------------------------
D:---------------------------------------------------------------
A:----5------2--------------------------------------------
E:-------5------3---5----------------------------------------

VERSE
G:---------------------------------------------------------------
D:---------------------------------------------------------------
A:---5>------2>--2>----------------------------------------------
E:-------5>----------3>---5>-------------------------------------

AFtER VeRSE DEAL(no GUNs NO dRUGS...)
G:---------------------------------------------------------------
D:---------------------------------------------------------------
A:---5>-----2>------------------------------------------------
E:-------5>-----0>--3>---------------------------------------------
THIs WEIrD BASS ThiNG COmMITTED tO THE ENd OF THE THINg ABOve
G:---------------------------------------------------------------
D:-------4-5-7-5-4----------------------------------------
A:----5------------5----4-5-7-5-4------THEN--2------------------
E:--------------------5-----------5--------------3---5-------
[ Tab from: http://www.guitartabs.cc/tabs/l/lagwagon/black_eyes_btab_ver_2.html ]
AFTER VERSE
G:---------------------------------------------------------------
D:---------------------------------------------------------------
A:-----5>-------2>-------------------------------------------------
E:---------5>------0>--3>--->---------------------------------------

kORE-uS
G:---------------------------------------------------------------
D:---------------------------------------------------------------
A:---5--------------5-----------5---------5---------------
E:-----5--3--5--3>-----5-3-5-3>---5-3-5-3>-------------------

POsT cHORUS
G:---------------------------------------------------------------
D:---------------------------------------------------------------
A:--5>-------5>-------5>----------------------------------------
E:-----3333-----3333------0000--3333--5555----------------------

OUTRo
G:---------------------------------------------------------------
D:---------------------------------------------------------------
A:---555--4444------999---10-10-10-10----------------------------
E:---------------------------------------5>--7>--3>--5>---------

VERSe LAST THINg
G:---------------------------------------------------------------
D:---------------------------------------------------------------
A:---------------------------------------------------------------
E:-----7----5---3---------------------------------------------------


IT mAY sEEM LIKe ALOT BUT It IS eaSY.  HERE IS tHE ORdeR
INTRO x2
VERSE x2
AFTER VERSE x1
BASS THINGY x1
VERSE x2
AFTER VERSE x1
CHORUS x1
POST CHORUS x2
AFTER VERSE x1
CHORUS x1
OUTRO x3and a half
END THING x1
that's all FolKs
justin.




Comments