Lagwagon - Angry Days Chords & Tabs

 

Angry Days Chords & Tabs

Lagwagon Chords & Tabs

Version: 2 Type: Bass Tab 0 ratings
1 star 2 stars 3 stars 4 stars 5 stars
comments

Angry Days Bass Tab

-----------------------------------------------------------------------------
                 ANGRY DAYS      LAGWAGON
-----------------------------------------------------------------------------

blythe@pathcom.com              > MEANS STRUM

INTRO
G]------------------]
D]------------------]
A]-7>----2>---2-2---]x4
E]----2>----4-----4-]

VERSE 1
G]-----------------------------------------------------]
D]---------------------------------4--------6-4----6-4-]
A]-6>-4-6-4----7>----2-2/9>----4-6---6>----------------]
E]----------4>----2>--------2>----------4-4-----2-2----]
[ Tab from: http://www.guitartabs.cc/tabs/l/lagwagon/angry_days_btab_ver_2.html ]
VERSE 2
G]---------------------------------------------]
D]-------6>---------------------6>-------------]
A]-2>-6>----4>---------------6>----7>----4>----]
E]-------------2>-2/4/6/7-7>----------2>----2>-]

REPEAT INTRO 1 1/2 TIMES

SOLO PART
G]---------------------------]
D]-------6>------------------]
A]-2>-6>-------7>------------]x2
E]----------2>----2>-2/4/6/7-]

G]-------------]
D]-------------]
A]-7>----4>----]THENPLAY INTRO 3 TIMES
E]----2>----2>-]

BUT WHEN YOUR LOST.....
G]-------------------------]
D]-------------------------]
A]-2>----7>----2>-6>-7>----]
E]----4>----2>----------2>-]

ENDING
G]-------------------]
D]-------------------]
A]-6---------7-------]
E]------4----------2-]

REPEAT INTRO 4 TIMES
Comments