Lady Gaga - Born This Way Chords & Tabs

 

Lady Gaga Chords & Tabs

Version: 3 Type: Tab 0 ratings
1 star 2 stars 3 stars 4 stars 5 stars
comments

Born This Way Tab

   
Artist: Lady Gaga
Song: Born This Way

Check out my cover of this tab on youtube:
http://www.youtube.com/watch?v=ih0N8KOppH4


 Verse
  Q  Q  E E E Q  E E Q  E Q  Q  Q  E E E Q  E Q  E E Q
|---------------------------------------------------------|
|---------------------------------------------------------|
|----------------------------5--5--5-5-5------------------|
|-5--5--5-5-5-3--3-3-3--3-3--5--5--5-5-5-5--5-5--5-5-5----|
|-5--5--5-5-5-3--3-3-3--3-3--3--3--3-3-3-5--5-5--5-5-5----|
|-3--3--3-3-3-1--1-1-1--1-1--------------3--3-3--3-3-3----|

  
  Q  Q  E E E E E Q  Q  E Q  Q  Q  E E E Q  E Q  E E Q
|---------------------------------------------------------|
|---------------------------------------------------------|
|----------------------------5--5--5-5-5------------------|
|-5--5--5-5-5-5-3-3--3--3-3--5--5--5-5-5-5--5-5--5-5-5----|
|-5--5--5-5-5-5-3-3--3--3-3--3--3--3-3-3-5--5-5--5-5-5----|
|-3--3--3-3-3-3-1-1--1--1-1--------------3--3-3--3-3-3----|


  Q  Q  E E E E E Q  Q  E Q  Q  Q  E E E Q  E Q  E E Q
|---------------------------------------------------------|
|---------------------------------------------------------|
|----------------------------5--5--5-5-5------------------|
|-5--5--5-5-5-5-3-3--3--3-3--5--5--5-5-5-5--5-5--5-5-5----|
|-5--5--5-5-5-5-3-3--3--3-3--3--3--3-3-3-5--5-5--5-5-5----|
|-3--3--3-3-3-3-1-1--1--1-1--------------3--3-3--3-3-3----|


  Q  Q  E E E E E Q  Q  E Q  E E E E E E W        Q
|------------------------------------------------------|
|------------------------------------------------------|
|----------------------------5-5-5-5-5-----------------|
|-5--5--5-5-5-5-3-3--3--3-3--5-5-5-5-5-5-5-------------|
|-5--5--5-5-5-5-3-3--3--3-3--3-3-3-3-3-5-5-------------|
|-3--3--3-3-3-3-1-1--1--1-1------------3-3-------------|


 Pre Chorus
  Q  E Q  E E E Q  E Q  E E E Q  Q  E E E E Q  E Q  E E E
|-3--3-3--3-3-3-1--1-1--1-1-1-3--3--3-3-3-3-3--3-3--3-3-3----|
|-3--3-3--3-3-3-1--1-1--1-1-1-5--5--5-5-5-5-3--3-3--3-3-3----|
|-4--4-4--4-4-4-2--2-2--2-2-2-5--5--5-5-5-5-4--4-4--4-4-4----|
|-5--5-5--5-5-5-3--3-3--3-3-3-5--5--5-5-5-5-5--5-5--5-5-5----|
|-5--5-5--5-5-5-3--3-3--3-3-3-3--3--3-3-3-3-5--5-5--5-5-5----|
|-3--3-3--3-3-3-1--1-1--1-1-1---------------3--3-3--3-3-3----|


  Q  E Q  E E E Q  E Q  E E E Q  Q  E E E E Q  E Q  E E E
|-3--3-3--3-3-3-1--1-1--1-1-1-3--3--3-3-3-3-3--3-3--3-3-3----|
|-3--3-3--3-3-3-1--1-1--1-1-1-5--5--5-5-5-5-3--3-3--3-3-3----|
|-4--4-4--4-4-4-2--2-2--2-2-2-5--5--5-5-5-5-4--4-4--4-4-4----|
|-5--5-5--5-5-5-3--3-3--3-3-3-5--5--5-5-5-5-5--5-5--5-5-5----|
|-5--5-5--5-5-5-3--3-3--3-3-3-3--3--3-3-3-3-5--5-5--5-5-5----|
|-3--3-3--3-3-3-1--1-1--1-1-1---------------3--3-3--3-3-3----|


 Chorus
  Q  Q  H    Q  Q  H    Q  Q  E E E Q  E Q  E E E E
|-3----------1----------3--3--3-3-3-3--3-3--3-3-3-3----|
|-3----------1----------5--5--5-5-5-3--3-3--3-3-3-3----|
|-4----------2----------5--5--5-5-5-4--4-4--4-4-4-4----|
|-5----------3----------5--5--5-5-5-5--5-5--5-5-5-5----|
|-5----------3----------3--3--3-3-3-5--5-5--5-5-5-5----|
|-3----------1----------------------3--3-3--3-3-3-3----|


  Q  Q  H    Q  Q  E E E E Q  Q  E E E E Q  E Q  E E E
|------------1--1--1-1-1-1-3--3--3-3-3-3-3--3-3--3-3-3----|
|-3----------1--1--1-1-1-1-5--5--5-5-5-5-3--3-3--3-3-3----|
|-4----------2--2--2-2-2-2-5--5--5-5-5-5-4--4-4--4-4-4----|
|-5----------3--3--3-3-3-3-5--5--5-5-5-5-5--5-5--5-5-5----|
|-5----------3--3--3-3-3-3-3--3--3-3-3-3-5--5-5--5-5-5----|
|-3----------1--1--1-1-1-1---------------3--3-3--3-3-3----|

[ Tab from: http://www.guitartabs.cc/tabs/l/lady_gaga/born_this_way_tab_ver_3.html ]
 Interlude
  E.  E. E E.  E. E E.  E. E E.  E. E E.  E. E E.  E. E E E Q  H
|-3---3--3-3---3--3-1---1--1-1---1--1-3---3--3-3---3--3-3-----------|
|-3---3--3-3---3--3-1---1--1-1---1--1-5---5--5-5---5--5-3-----------|
|-4---4--4-4---4--4-2---2--2-2---2--2-5---5--5-5---5--5-4-----------|
|-5---5--5-5---5--5-3---3--3-3---3--3-5---5--5-5---5--5-5-----------|
|-5---5--5-5---5--5-3---3--3-3---3--3-3---3--3-3---3--3-5-----------|
|-3---3--3-3---3--3-1---1--1-1---1--1-------------------3-----------|


 Verse
  Q  Q  E E E Q  E E Q  E Q  Q  Q  E E E Q  E Q  E E Q
|---------------------------------------------------------|
|---------------------------------------------------------|
|----------------------------5--5--5-5-5------------------|
|-5--5--5-5-5-3--3-3-3--3-3--5--5--5-5-5-5--5-5--5-5-5----|
|-5--5--5-5-5-3--3-3-3--3-3--3--3--3-3-3-5--5-5--5-5-5----|
|-3--3--3-3-3-1--1-1-1--1-1--------------3--3-3--3-3-3----|


  Q  Q  E E E E E Q  Q  E Q  Q  Q  E E E Q  E Q  E E Q
|---------------------------------------------------------|
|---------------------------------------------------------|
|----------------------------5--5--5-5-5------------------|
|-5--5--5-5-5-5-3-3--3--3-3--5--5--5-5-5-5--5-5--5-5-5----|
|-5--5--5-5-5-5-3-3--3--3-3--3--3--3-3-3-5--5-5--5-5-5----|
|-3--3--3-3-3-3-1-1--1--1-1--------------3--3-3--3-3-3----|


  Q  Q  E E E Q  E E Q  E Q  E E E Q  Q  Q  E E E E E Q
|----------------------------------------------------------|
|----------------------------------------------------------|
|----------------------------5-5-5-5--5--5-----------------|
|-5--5--5-5-5-3--3-3-3--3-3--5-5-5-5--5--5--5-5-5-5-5-5----|
|-5--5--5-5-5-3--3-3-3--3-3--3-3-3-3--3--3--5-5-5-5-5-5----|
|-3--3--3-3-3-1--1-1-1--1-1-----------------3-3-3-3-3-3----|


  Q  Q  E E E E E Q  Q  E Q  E E E E E E W        Q
|------------------------------------------------------|
|------------------------------------------------------|
|----------------------------5-5-5-5-5-----------------|
|-5--5--5-5-5-5-3-3--3--3-3--5-5-5-5-5-5-5-------------|
|-5--5--5-5-5-5-3-3--3--3-3--3-3-3-3-3-5-5-------------|
|-3--3--3-3-3-3-1-1--1--1-1------------3-3-------------|


 Pre Chorus
  Q  E Q  E E E Q  E Q  E E E Q  Q  E E E E Q  E Q  E E E
|-3--3-3--3-3-3-1--1-1--1-1-1-3--3--3-3-3-3-3--3-3--3-3-3----|
|-3--3-3--3-3-3-1--1-1--1-1-1-5--5--5-5-5-5-3--3-3--3-3-3----|
|-4--4-4--4-4-4-2--2-2--2-2-2-5--5--5-5-5-5-4--4-4--4-4-4----|
|-5--5-5--5-5-5-3--3-3--3-3-3-5--5--5-5-5-5-5--5-5--5-5-5----|
|-5--5-5--5-5-5-3--3-3--3-3-3-3--3--3-3-3-3-5--5-5--5-5-5----|
|-3--3-3--3-3-3-1--1-1--1-1-1---------------3--3-3--3-3-3----|


  Q  E Q  E E E Q  E Q  E E E Q  Q  E E E E Q  E Q  E E E
|-3--3-3--3-3-3-1--1-1--1-1-1-3--3--3-3-3-3-3--3-3--3-3-3----|
|-3--3-3--3-3-3-1--1-1--1-1-1-5--5--5-5-5-5-3--3-3--3-3-3----|
|-4--4-4--4-4-4-2--2-2--2-2-2-5--5--5-5-5-5-4--4-4--4-4-4----|
|-5--5-5--5-5-5-3--3-3--3-3-3-5--5--5-5-5-5-5--5-5--5-5-5----|
|-5--5-5--5-5-5-3--3-3--3-3-3-3--3--3-3-3-3-5--5-5--5-5-5----|
|-3--3-3--3-3-3-1--1-1--1-1-1---------------3--3-3--3-3-3----|


 Chorus
  Q  Q  H    Q  Q  H    Q  Q  E E E Q  E Q  E E E E
|-3----------1----------3--3--3-3-3-3--3-3--3-3-3-3----|
|-3----------1----------5--5--5-5-5-3--3-3--3-3-3-3----|
|-4----------2----------5--5--5-5-5-4--4-4--4-4-4-4----|
|-5----------3----------5--5--5-5-5-5--5-5--5-5-5-5----|
|-5----------3----------3--3--3-3-3-5--5-5--5-5-5-5----|
|-3----------1----------------------3--3-3--3-3-3-3----|


  Q  Q  H    Q  Q  E E E E Q  Q  E E E E Q  E Q  E E E
|------------1--1--1-1-1-1-3--3--3-3-3-3-3--3-3--3-3-3----|
|-3----------1--1--1-1-1-1-5--5--5-5-5-5-3--3-3--3-3-3----|
|-4----------2--2--2-2-2-2-5--5--5-5-5-5-4--4-4--4-4-4----|
|-5----------3--3--3-3-3-3-5--5--5-5-5-5-5--5-5--5-5-5----|
|-5----------3--3--3-3-3-3-3--3--3-3-3-3-5--5-5--5-5-5----|
|-3----------1--1--1-1-1-1---------------3--3-3--3-3-3----|


 Interlude
  E.  E. E E.  E. E E.  E. E E.  E. E E.  E. E E.  E. E E E Q  H
|-3---3--3-3---3--3-1---1--1-1---1--1-3---3--3-3---3--3-3-----------|
|-3---3--3-3---3--3-1---1--1-1---1--1-5---5--5-5---5--5-3-----------|
|-4---4--4-4---4--4-2---2--2-2---2--2-5---5--5-5---5--5-4-----------|
|-5---5--5-5---5--5-3---3--3-3---3--3-5---5--5-5---5--5-5-----------|
|-5---5--5-5---5--5-3---3--3-3---3--3-3---3--3-3---3--3-5-----------|
|-3---3--3-3---3--3-1---1--1-1---1--1-------------------3-----------|
Comments