Lady Gaga - Bad Romance Chords & Tabs

 

Bad Romance Chords & Tabs

Lady Gaga Chords & Tabs

Version: 1 Type: Bass Tab 0 ratings
1 star 2 stars 3 stars 4 stars 5 stars
comments

Bad Romance Bass Tab

Standard tuning blah blah blah

|------------------------------------------------------------| 
|---0-2---3-2-3-2-0-----0-2-2-2-0----------------------------| 
|-3-----3-----------2-3-----------3--------------------------| 
|------------------------------------------------------------|x2

|------------------------------------------------------------| 
|-----2-2-3-2-----2-2-3-2-----2-2-3-2------------------------| 
|-0-0---------0-0---------0-0----------3-3-0-3-0-3-----------| 
|------------------------------------------------------------| x2

|------------------------------------------------------------| 
|------------------------------------------------------------| 
|-0-0---0-0--0-3-0---0--0-0---0-0-0-0-3-0---0----------------| 
|-----3------------3--------3-------------3------------------| 

|------------------------------------------------------------| 
|---------2--------------------------------------------------| 
|-------0---3-0-------0--------------------------------------| 
|-0-3-4--------0-3-4-----------------------------------------| 

|------------------------------------------------------------| 
|------------------------------------------------------------| 
|-3-3-0-3-3-0-3-3-0-3/--3-3-0-3-3-3-0-3-0--0-----------------| 
|----------------------------------------3-------------------|

|------------------------------------------------------------| 
|---------2--------------------------------------------------| 
|-------0---3-0-------0--------------------------------------| 
|-0-3-4---------0-3-4----------------------------------------| 
[ Tab from: http://www.guitartabs.cc/tabs/l/lady_gaga/bad_romance_btab.html ]
|------------------------------------------------------------| 
|-7-7-7-7-7/-5-5------------------5--------------------------| 
|----------------5-5--5-5-7-7-7-7---5-5-3--------------------| 
|------------------------------------------------------------| x2
(Back to top, and then keep going down)
|------------------------------------------------------------| 
|---0-2---3-2-3-2-0-----0-2-2-2-0----------------------------| 
|-3-----3-----------2-3-----------3--------------------------| 
|------------------------------------------------------------|x2

|------------------------------------------------------------| 
|-----2-2-3-2-----2-2-3-2-----2-2-3-2------------------------| 
|-0-0---------0-0---------0-0----------3-3-0-3-0-3-----------| 
|------------------------------------------------------------| x2

|------------------------------------------------------------| 
|------------------------------------------------------------| 
|-3-2---0-3-3-2-2-----3-2---0--7-7-7-7-5-3-------------------| 
|-----3-----------3-0-----3----------------------------------|x2

|------------------17-17-17-17-16-14-/12\14------------------| 
|-----------5------------------------------------------------| 
|---7-7-7-7--------------------------------------------------| 
|-------------8----------------------------------------------| 

|------------------------------------------------------------| 
|-7-7-7-7-7/-5-5------------------5-2-2-0--------------------| 
|----------------5-5--5-5-7-7-7-7----------------------------| 
|------------------------------------------------------------|

|------------------------------------------------------------| 
|-7-7-7-7-7/-5-5------------------5--------------------------| 
|----------------5-5--5-5-7-7-7-7---5-5-3--------------------| 
|------------------------------------------------------------|

|------------------------------------------------------------| 
|---0-2---3-2-3-2-0-----0-2-2-2-0----------------------------| 
|-3-----3-----------2-3-----------3--------------------------| 
|------------------------------------------------------------|x2

|------------------------------------------------------------| 
|-----2-2-3-2-----2-2-3-2-----2-2-3-2------------------------| 
|-0-0---------0-0---------0-0----------3-3-0-3-0-3-----------| 
|------------------------------------------------------------| x2
Comments