Lady Gaga - Applause Chords & Tabs

 

Applause Chords & Tabs

Lady Gaga Chords & Tabs

Version: 2 Type: Bass Tab 0 ratings
1 star 2 stars 3 stars 4 stars 5 stars
comments

Applause Bass Tab

   
-------------------------------------------------------------------------------
                             Applause - Lady Gaga
-------------------------------------------------------------------------------
Tabbed by: David Parfett        
E-mail: dbparfett@gmail.com
Tuning: E A D G 


Intro/Verse  0:00

                                                                 x8
G|-----------------------------------------------------------------|
D|-------3-3-3-1-1-1-1-1-1-1-1-1---------3-3-3---------------------|
A|-------------------------------1-3-3-3---------------------------|
E|-3-3-3---------------------------------------3-3-3-3-3-3-3-3-3-1-|


Pre Chorus  0:41

                                                     x2                                        
G|-----------------------------------------------------|
D|-------3-----1-(ring)-----------3--------------------|
A|---------------------------3-------------------------|
E|--3-----------------------------------3-(ring)-------|


Chorus  0:55

                                                                      x4
G|----------------------------------------------------------------------|
D|---------3-3----1-1---1-1---1-1-1-1---------3-3-----------------------|
A|----------------------------------- 1-3-3-----------------------------|
E|-3-3--------------------------------------------3-3---3-3---3-3-3-3-1-|


Verse  1:22
[ Tab from: http://www.guitartabs.cc/tabs/l/lady_gaga/applause_btab_ver_2.html ]
                                                                 x4
G|-----------------------------------------------------------------|
D|-------3-3-3-1-1-1-1-1-1-1-1-1---------3-3-3---------------------|
A|-------------------------------1-3-3-3---------------------------|
E|-3-3-3---------------------------------------3-3-3-3-3-3-3-3-3-1-|


Pre Chorus  1:49

                                                     x2                                        
G|-----------------------------------------------------|
D|-------3-----1-(ring)-----------3--------------------|
A|---------------------------3-------------------------|
E|--3-----------------------------------3-(ring)-------|


Chorus  2:03

                                                                      x4
G|----------------------------------------------------------------------|
D|---------3-3----1-1---1-1---1-1-1-1---------3-3-----------------------|
A|----------------------------------- 1-3-3-----------------------------|
E|-3-3--------------------------------------------3-3---3-3---3-3-3-3-1-|


Bridge  2:31

                                                     x4                                        
G|-----------------------------------------------------|
D|-------3-----1-(ring)-----------3--------------------|
A|---------------------------3-------------------------|
E|--3-----------------------------------3-(ring)-------|


Chorus/Outro  2:58

                                                                      x4
G|----------------------------------------------------------------------|-------------|
D|---------3-3----1-1---1-1---1-1-1-1---------3-3-----------------------|-----3-3-----|
A|----------------------------------- 1-3-3-----------------------------|-3-3---------|
E|-3-3--------------------------------------------3-3---3-3---3-3-3-3-1-|---------3-3-|




| /  slide up
| \  slide down
| h  hammer-on
| p  pull-off
| ~  vibrato
| +  harmonic
| x  Mute note
===============================================================================
Comments