Lady Gaga - Applause Chords & Tabs

 

Applause Chords & Tabs

Lady Gaga Chords & Tabs

Version: 1 Type: Bass Tab 0 ratings
1 star 2 stars 3 stars 4 stars 5 stars
comments

Applause Bass Tab

Tune the bottom string to D guys!

Intro
G|------------------------------------|----------------------------------------|
D|------------------------------------|----------------------------------------|
A|-10-10-10-8-8-8-6-6-6-6-6-6-6-6-6-6-|-6-6-6-8-8-10-10-10-10-10-10-10-10-10-8-|
D|------------------------------------|----------------------------------------|x2

Verse
G|------------------------------------|----------------------------------------|
D|------------------------------------|----------------------------------------|
A|-10-10-10-8-8-8-6-6-6-6-6-6-6-6-6-6-|-6-6-6-8-8-10-10-10-10-10-10-10-10-10-8-|
D|------------------------------------|----------------------------------------|x4
[ Tab from: http://www.guitartabs.cc/tabs/l/lady_gaga/applause_btab.html ]
Pre-Chorus ... Quiet Bit
G|------------------------------------------------------|
D|------------------------------------------------------|
A|-10--10--8--8--6--6--6--6--3--3--8--8--10--10--10--10-|
D|------------------------------------------------------|x1

G|------------------------------------------------------|
D|------------------------------------------------------|
A|-10--10--8--8--6--6--6--6--3--3--8--8--10-------------|
D|------------------------------------------------------|x1

Chorus
G|----------------------------------------------|
D|----------------------------------------------|
A|--------------------------3----3--------------|
D|-5----53----31----1-1----1------3----35----55-|x4

Bridge
G|---------------|-----------------|
D|---------------|-----------------|
A|-10~---8~---6~-|-3~----8~----10~-|
D|---------------|-----------------|

Tabbed By Jack Mills
Comments