Lacuna Coil - Wave Of Anguish Chords & Tabs

 

Wave Of Anguish Chords & Tabs

Lacuna Coil Chords & Tabs

Version: 1 Type: Bass Tab 0 ratings
1 star 2 stars 3 stars 4 stars 5 stars
comments

Wave Of Anguish Bass Tab

Intro:
|------------------------------|
|------------------------------|
|------------------------------|
|-5--6-----6-66-5-5-5-6--7--8--|
|-------0----------------------|

Verse:
|-----------------------------------------------------------------------------------------|
|-----------------------------------------------------------------------------------------|
|-----------------------------------------------------------------------------------------|
|-5555-55-55-6666-66-66-7777-77-77-6666-66-66-5555-55-55-6666-66-66-7777-77-77-8888-88-88-|
|-----------------------------------------------------------------------------------------|
[ Tab from: http://www.guitartabs.cc/tabs/l/lacuna_coil/wave_of_anguish_btab.html ]
Bridge:
|------------------------|
|------------------------|
|------------------------|
|----6--7--3-----6--7--8-|
|-3-----------3----------|

|--------------|
|--------------|
|--------------|
|--------------|
|-0-(let ring)-|

|------|
|------|
|------|
|-/10-|
|------|

|----------------|
|----------------|
|----------------| 4x
|----------------|
|-0-(let ring)-0-|

Chorus:
|-----------------------|
|-----------------------|
|-----------------------| 4x
|------------5------5---|
|-3---3-3--3----3-3---3-|

Intro

Verse

Bridge (The whole thing)

Chorus 4x

Breakdown:
|--------------|
|--------------|
|--------------|
|--------------|
|-3-(let ring)-|

|----------------|
|----------------|
|----------------| 8x
|----------------|
|-0-(let ring)-0-|

Chorus 8x (fade out after 4x)
Comments