Lacuna Coil - Veins Of Glass Chords & Tabs

 

Veins Of Glass Chords & Tabs

Lacuna Coil Chords & Tabs

Version: 1 Type: Tab 0 ratings
1 star 2 stars 3 stars 4 stars 5 stars
comments

Veins Of Glass Tab

   
Band- Lacuna Coil
Song- Veins Of Glass
[ Tab from: http://www.guitartabs.cc/tabs/l/lacuna_coil/veins_of_glass_tab.html ]
Intro:  Gtr. 2 w/ distortion plays chords shown. 
 
 E5(7th fret)                B5      C5         F#5 
|----------------------------------------------------------------| 
|----------------------------------------------------------------| 
|------------0---------------------------0-----------------0-----| 
|--------5-------5-------------------5-----------------5---------| 
|----2---------------2-----------2-----------------0-------------| 
|0-----------------------0---3-----------------2-----------------| 
 
 
 E5(7th fret)                B5      C5        F#5 
|----------------------------------------------------------------| 
|----------------------------------------------------------0-----| 
|------------0---------------------------0-------------0---------| 
|--------5-------5-------------------5---------------------------| 
|----2---------------2-----------2-----------------0-------------| 
|0-----------------------0---3-----------------2-----------------| 
 
 
 Andrea's Verse: 
 
|----------------------------------------------------------------| 
|------------0---------------------------0---------------0-------| 
|--------5-------5-------------------5---------------5-----------| 
|----2---------------2-----------2---------------0---------------| 
|0-----------------------0---3---------------2-------------------| 
|----------------------------------------------------------------| 
 
  
|--------------------------------------------------------0-------| 
|------------0---------------------------0-----------0-----------| 
|--------5-------5-------------------5---------------------------| 
|----2---------------2-----------2---------------0---------------| 
|0-----------------------0---3---------------2-------------------| 
|----------------------------------------------------------------| 
 
 
 Cristina's Verse: Gtr. 2 plays chords shown. 
 
 D5 
|----------------------------------------------------------------| 
|----------------6---------------6---------------6---------------| 
|----5---------------5---------------5---------------5-----------| 
|7-------7---------------7---------------7---------------7-------| 
|----------------------------------------------------------------| 
|----------------------------------------------------------------| 
 
  
 A5                              G5        
|----------------------------------------------------------------| 
|5---------------5---------------3---------------3---------------| 
|----5---------------5---------------4---------------4-----------| 
|--------7---------------7---------------5---------------5-------| 
|----------------------------------------------------------------| 
|----------------------------------------------------------------| 
 
  
 Chorus: 
 
|----------------------------------------------------------------| 
|----------------------------------------------------------------| 
|----------------------------------------------------------------| 
|7-------7---7---7-------7-------7-7-2---2-------2---------------| 
|5-------5---5---5-------5-------5-5-0---3---0---0-------2---2---| 
|----------------------------------------------------0---3---3---| 
 
  
 Background to Bass solo: Gtr.2 plays chords shown. 
  
 A5                      G5                      F#5 
|----------------------------------------------------------------| 
|----------------------------------------------------------------| 
|--------5-------4---------------5-------4---------------2-------| 
|----2-------2-------2-------2-------2-------2-------0-------0---| 
|0---------------------------------------------------------------| 
|------------------------3-----------------------2---------------| 
 
 
              E5  F5                    G5             
|----------------------------------------------------------------| 
|0---------------------------------------------------------------| 
|----2-------------------2-----------------------4---------------| 
|--------0-----------0-------0---------------0-------0-----------| 
|------------------------------------0-----------------------0---| 
|------------0---1---------------1-------3---------------3-------| 
 
  
 F5                      G5 
|----------------------------------------------------------------| 
|----------------------------------------------------------------| 
|--------2-----------------------4-----------4-------------------| 
|----0-------0---------------0-------0---------------------------| 
|--------------------0-------------------------------------------| 
|1---------------1-------3---------------3-----------------------| 
  
 
 
Comments