Lacuna Coil - Veins Of Glass Chords & Tabs

 

Veins Of Glass Chords & Tabs

Lacuna Coil Chords & Tabs

Version: 1 Type: Bass Tab 0 ratings
1 star 2 stars 3 stars 4 stars 5 stars
comments

Veins Of Glass Bass Tab

Intro:
|------------|
|-2----------|
|-----2-3----| 4x
|----------2-|
|------------|

Verse:
|---------------------|
|-------------------2-|
|-0-----3---0-----3---| 4x
|---------3-----------|
|---------------------|

PreChorus:
|----------------------------------|
|----------------------------------|
|-5555555555555555-----------------| 2x
|-----------------5555555533333333-|
|----------------------------------|

Chorus:
|-------------------------|
|-------------------------|
|-5--555-57---------------| 4x
|-----------5--8-3-333-35-|
|-------------------------|

Verse 2x
Prechorus 2x

Chorus 4x
[ Tab from: http://www.guitartabs.cc/tabs/l/lacuna_coil/veins_of_glass_btab.html ]
Interlude:
|---|
|---|
|---|
|-5-|
|---|

Basssolo:
|-----------12----------------------------5------5------5---|
|-/7-/9-/10-----10----10-9-8----0-3-/7-5----5-3----3-5----5-|
|------------------10---------------------------------------| 2x
|-----------------------------------------------------------|
|-----------------------------------------------------------|

Rest from Interlude:
|-------------------------|
|-------------------------|
|-------------------------|
|-5--3--2-----1--3--1--3--|
|-----------3-------------|

Verse 4x
PreChorus 2x

Chorus 4x

End:
|--------------|
|--------------|
|-5-(let ring)-|
|--------------|
|--------------|
Comments