Lacuna Coil - Tight Rope Chords & Tabs

 

Tight Rope Chords & Tabs

Lacuna Coil Chords & Tabs

Version: 1 Type: Bass Tab 0 ratings
1 star 2 stars 3 stars 4 stars 5 stars
comments

Tight Rope Bass Tab

Intro:
|----------|
|----------|
|----------|
|-00000000-|
|----------|

Bridge:
|-----------------|
|-----------------|
|-----------------| 4x
|-0-00-010--0-010-|
|-----------------|

Verse:
|--------------------------------|
|--------------------------------|
|--------------------------------| 4x
|-0-0-0--------------------------|
|--------3--3-3-3-1-1-1-3--3-3-3-|

Breakdown:
|--------------|
|--------------|
|--------------|
|-0-(let ring)-|
|--------------|
[ Tab from: http://www.guitartabs.cc/tabs/l/lacuna_coil/tight_rope_btab.html ]
Chorus:
|-------------------------------------|
|-------------------------------------|
|-------------------------------------| 2x
|-0--3-2------3-2---0--3-2------------|
|--------3-1------3--------3-1--3-3-3-|

Bridge 4x
Verse 4x
Breakdown

Chorus 2x

Interlude:
|----------------------|
|----------------------|
|----------------------| 8x
|-0-0-0-0-0--0-0-0-0-0-|
|----------------------|

Chorus 4x

End:
|-------------------------|
|-------------------------|
|-------------------------|
|-0-(let ring + fade out)-|
|-------------------------|
Comments