Lacuna Coil - This Is My Dream Chords & Tabs

 

This Is My Dream Chords & Tabs

Lacuna Coil Chords & Tabs

Version: 1 Type: Tab 0 ratings
1 star 2 stars 3 stars 4 stars 5 stars
comments

This Is My Dream Tab

   
Band- Lacuna Coil
Song- This Is My Dream
[ Tab from: http://www.guitartabs.cc/tabs/l/lacuna_coil/this_is_my_dream_tab.html ]
Intro and Verse:  
 
|----------------------------------------------------------------| 
|----------------------------------------------------------------| 
|--------------------9-------9---------------------------0-------| 
|--------5-------7-----------------------0-----------12------12--| 
|----7-------9-----------9-----------7-----------9---------------| 
|0-------------------------------8-----------10------------------| 
 
  
 Gtr. 2 Verse/Chorus: This part comes in quietly when Cristina starts 
                      singing.  I believe a flanger effect is used. 
                      It then turns really heavy for the chorus. 
 
|--------------------------------------------------------0-------| 
|----------------------------------------------------------------| 
|----------------------------------------------------------------| 
|--------9/--------------0---------------0-----------12------12--| 
|2-----------------------------------7-----------9---------------| 
|0-------------------------------8-----------10------------------| 
 
 
 This is the part right after the bass interlude.  Gtr. 1 plays this 
 while Gtr. 2 wails the full chords.  A third guitar plays a  
 B (7th fret high E) except when the F# chord is being played, where it 
 plays an A# (6th fret high E). 
  
 G 
|3-------------------------------3-------------------------------| 
|3-------------------------------3-------------------------------| 
|4---4-----------4-----------4---4---4-----------4-----------4---| 
|5-------5-----------5-----------5-------5-----------5-----------| 
|5-----------5-----------5-------5-----------5-----------5-------| 
|3-------------------------------3-------------------------------| 
 
 B 
|7-------------------------------7-------------------------------| 
|7-------------------------------7-------------------------------| 
|8---8-----------8-----------8---8---8-----------8-----------8---| 
|9-------9-----------9-----------9-------9-----------9-----------| 
|9-----------9-----------9-------9-----------9-----------9-------| 
|7-------------------------------7-------------------------------| 
 
 G 
|3-------------------------------3-------------------------------| 
|3-------------------------------3-------------------------------| 
|4---4-----------4-----------4---4---4-----------4-----------4---| 
|5-------5-----------5-----------5-------5-----------5-----------| 
|5-----------5-----------5-------5-----------5-----------5-------| 
|3-------------------------------3-------------------------------| 
 
 F#                              B 
|2-------------------------------7-------------------------------| 
|2-------------------------------7-------------------------------| 
|3---3-----------3-----------3---8---8-----------8-----------8---| 
|4-------4-----------4-----------9-------9-----------9-----------| 
|4-----------4-----------4-------9-----------9-----------9-------| 
|2-------------------------------7-------------------------------| 
 
 
Comments