Lacuna Coil - Swamped Chords & Tabs

 

Swamped Chords & Tabs

Lacuna Coil Chords & Tabs

Version: 1 Type: Bass Tab 0 ratings
1 star 2 stars 3 stars 4 stars 5 stars
comments

Swamped Bass Tab

Band- Lacuna Coil
Song- Swamped

G------------------------------------|
D------------------------------------|
A------------------------------------|
E--0--1--0-----0--0----1--0----------|
B------------------------------------|
Intro
[ Tab from: http://www.guitartabs.cc/tabs/l/lacuna_coil/swamped_btab.html ]
G---------------------------------|--------------------------------------|
D---------------------------------|--------------------------------------|
A---------------------------------|--------------------------------------|
E--0--1--0-----0--0----1--0--|---0-0-0---1--0---0--0--1--0---------------|
B---------------------------------|--------------------------------------|
*verses

G----------------|
D----------------|
A---5^7----------|  *This little hammer-on fill is sometimes
E----------------|     played between the verses with variations
B----------------|

G--------------------------|
D--------------------------|
A--------------------------|
E--------------------------|
B---5----0---3----5--------|
chorus

G------------------------------------------|
D------------------------------------------|
A------------------------------------------|
E---0--------0--0--------0-------0---------|
B------------------------------------------|
The breakdown @3:04 is just a simple open E
Comments