Lacuna Coil - Stately Lover Chords & Tabs

 

Stately Lover Chords & Tabs

Lacuna Coil Chords & Tabs

Version: 1 Type: Bass Tab 0 ratings
1 star 2 stars 3 stars 4 stars 5 stars
comments

Stately Lover Bass Tab

Intro:
|---------------------------------------------------------|
|---------------------------------------------------------|
|---/5~-1------/5~-1------/5~-1------/~5-1-3-0-(let ring)-|
|-3----------3----------3----------3----------------------|
|---------3----------3----------3-------------------------|

Bridge:
|-------------------------------------------------|
|-------------------------------------------------|
|-------------------------------------------------|
|-5---0--1-3--5---0--1-3--5---0--1-3--5---0--1-4--|
|-------------------------------------------------|

|--------------|
|--------------|
|--------------| 2x
|-0-----1--3---|
|----3---------|
[ Tab from: http://www.guitartabs.cc/tabs/l/lacuna_coil/stately_lover_btab.html ]
|------------------|
|------------------|
|------------------| 2x
|-0000----11113333-|
|-----3333---------|

Chorus:
|------------|
|------------|
|------------| 4x
|-5--0--1----|
|----------3-|

Bridge2:
|-----------------------------------------------|
|-----------------------------------------------|
|-----------------------------------------------|
|-1---11---(1)0---00----1---11---(1)0-----------|
|--------------------------------------333--333-|

Intro

Bridge

Chorus 4x

Interlude:
|--------------|
|--------------|
|--------------|
|-5-(let ring)-|
|--------------|

Chorus 6x

End:
|--------------|
|--------------|
|--------------| 
|-5-(let ring)-|
|--------------|
Comments