Lacuna Coil - Senzafine Chords & Tabs

 

Senzafine Chords & Tabs

Lacuna Coil Chords & Tabs

Version: 1 Type: Bass Tab 0 ratings
1 star 2 stars 3 stars 4 stars 5 stars
comments

Senzafine Bass Tab

Band- Lacuna Coil
Song- Senzafine

Verse:
|-------|
|-------|
|-------| 12x
|-0-0-0-|
|-------|

Sometimes there is this Fill in:
|------|
|----2-|
|------|
|-00---|
|------|

Bridge:
|-----------------------------------------|
|-----------------------------------------|
|-----------------------------------------|
|-5-3--0-0--5-3--0-2-3-5-3--0-0--5-3--0-2-|
|-----------------------------------------|

Verse (with Fill in) 8x

Chorus:
|---------------------------------------|
|--------5-5-5--------5-5-5-------------|
|-3-3-33-------3-3-33-------------------|
|---------------------------0---------0-|
|----------------------------------0----|

|---------------------------------------|
|--------5-5-5--------5-5-5-5---4-------|
|-3-3-33-------3-3-33-------------------|
|------------------------------------0--|
|---------------------------------------|

Verse (with Fill in) 8x

Bridge

Chorus

Interlude (No bass playing)
[ Tab from: http://www.guitartabs.cc/tabs/l/lacuna_coil/senzafine_btab.html ]
Chorus:
|---------------------------------------|
|--------5-5-5--------5-5-5-------------|
|-3-3-33-------3-3-33-------------------|
|---------------------------0---------0-|
|----------------------------------0----|

|---------------------------------------|
|--------5-5-5--------5-5-5-5---4-------|
|-3-3-33-------3-3-33-------------------|
|---------------------------------------|
|---------------------------------------|

|---------------------------------------|
|--------5-5-5--------5-5-5-------------|
|-3-3-33-------3-3-33-------------------|
|---------------------------0---------0-|
|----------------------------------0----|

|---------------------------------------|
|--------5-5-5--------5-5-5-5---4-------|
|-3-3-33-------3-3-33-------------------|
|---------------------------------------|
|---------------------------------------|

|---------------------------------------|
|--------5-5-5--------5-5-5-------------|
|-3-3-33-------3-3-33-------------------|
|---------------------------0---------0-|
|----------------------------------0----|

|---------------------------------------|
|--------5-5-5--------5-5-5-5---4-------|
|-3-3-33-------3-3-33-------------------|
|---------------------------------------|
|---------------------------------------|

End:
|--------------|
|--------------|
|--------------|
|-0-(let ring)-|
|--------------|


Comments