Lacuna Coil - Secret Chords & Tabs

 

Secret Chords & Tabs

Lacuna Coil Chords & Tabs

Version: 1 Type: Bass Tab 0 ratings
1 star 2 stars 3 stars 4 stars 5 stars
comments

Secret Bass Tab

Intro:
|-------------------------------------------|
|---------------------3---------------------|
|----------------------3--------------------|
|-33333333333333331------1/3333333333333333-|
|-------------------------------------------|

Verse:
|--------------------|
|--------------------|
|--------------------|
|-5----8----1----3---|
|--------------------|

|-------------------------------------|
|-------------------------------------|
|-------------------------------------|
|-55555555-88888888-11111111-33333333-|
|-------------------------------------|

|----------------------------------------------|
|-------3----------------3---------------------|
|--------3----------------3--------------------|
|-1--------1-3-----1--------1-3---333333333333-|
|----------------------------------------------|

Chorus:
|---------------|
|---------------|
|---/8-----/7-5-| 4x
|-5-----3-------|
|---------------|
[ Tab from: http://www.guitartabs.cc/tabs/l/lacuna_coil/secret_btab.html ]
Bridge:
|--------------------------------|
|----------------3h5-5h7-3h5-5h7-|
|------6666-3333-----------------| 2x
|-3333---------------------------|
|--------------------------------|

Verse (the whole thing like before)

chorus 4x

Interlude:
|--------------|
|--------------|
|--------------|
|-5-(let ring)-|
|--------------|

|-------------|
|-------------|
|-------------|
|-5555-5555-5-|
|-------------|

|-------------------------------------|
|-------------------------------------|
|-------------------------------------| 2x
|-55555555-88888888-11111111-33333333-|
|-------------------------------------|

|----------------------------------------------|
|-------3----------------3---------------------|
|--------3----------------3--------------------|
|-1--------1-3-----1--------1-3---333333333333-|
|----------------------------------------------|

Chorus 3x

|---------------------|
|---------------------|
|---/8----------------|
|-5-----333----3/123-|
|---------------------|

Chorus 8x

End:
|---|
|---|
|---|
|-5-|
|---|
Comments