Lacuna Coil - Prophet Said Chords & Tabs

 

Prophet Said Chords & Tabs

Lacuna Coil Chords & Tabs

Version: 1 Type: Tab 0 ratings
1 star 2 stars 3 stars 4 stars 5 stars
comments

Prophet Said Tab

Band- Lacuna Coil
Song- The Prophet Said

Drop D tuning


Intro (guitar 1)

e|----------|------------|----------|-------------|
B|----------|--------8---|----------|-------------|
G|-7-10-9-7-|-9-10-9-x-7-|-7-10-9-7-|-9-10-9-10-7-|
D|-0--0-0-0-|-0--0-0-0-0-|-0--0-0-0-|-0--0-0--0-0-|   (x2)
A|----------|------------|----------|-------------|
D|----------|------------|----------|-------------|

 guitar 2 only the 1st time:
e|----------|
B|----------|
G|----------|
D|-0--------|
A|-0--------|
D|-0--------|


Verse 1 (guitar 2, from the 3rd time guitar 1 repeats intro riff)

e|-----------------|-----------------|-----------------|-----------------|
B|-----------------|-----------------|-----------------|-----------------|
G|-----------------|-----------------|-----------------|-----------------|
D|---------------0-|---------------2-|---------------3-|---------------2-|   (x4)
A|-0-0-0-0-0-0-0-0-|-2-2-2-2-2-2-2-2-|-3-3-3-3-3-3-3-3-|-2-2-2-2-2-2-2-2-|
D|-0-0-0-0-0-0-0-0-|-2-2-2-2-2-2-2-2-|-3-3-3-3-3-3-3-3-|-2-2-2-2-2-2-2-2-|
   x x x x x x x     x x x x x x x     x x x x x x x     x x x x x x x

   Light         of my sun             light         in this temple 
   Light         in my truth           lies          in the darkness 
   Teasing pureness of your lies       soreness of a delightful mission 
   Burning up inside your mind         you belong to my possessions 


Chorus 1

e|-------------|-------------|
B|-------------|-------------|
G|-------------|-------------|
D|-5-----8-----|-0-----7-----|   (x4)
A|-5-----8-----|-0-----7-----|
D|-5-----8-----|-0-----7-----|

   Can\'t you     see   that I\'m 
   here  in...   side  you?
   Can\'t you     see   that I\'m 
   here  in...   side?


[Repeat intro]


Verse 2 (the same as 1)

 Light, massive pain, glide, passive tension 
 Light, show me how to slide in this pleasure 
 Teasing pureness of your eyes crawling into empty spaces 
 You could lie and lie again you belong to my possession 


[Repeat chorus x2]


Bridge (guitar 2, guitar 1 play notes between () )

e|------------|------------|------------|------------|
B|------------|------------|------------|------------|
G|------------|------------|------------|------------|
D|------------|-0----------|------------|------------|
A|------------|-0----------|------------|------------|
D|------------|-0----------|------------|------------|
     This is my harmony      I\'m in your heart again
    This is the place to live  where I\'m alone again 
[ Tab from: http://www.guitartabs.cc/tabs/l/lacuna_coil/prophet_said_tab.html ]
e|------------|------------|------------|------------|------------|
B|------------|------------|------------|------------|------------|
G|------------|------------|------------|------------|------------|
D|------------|------------|------------|------------|------------|
A|------------|------------|------------|------------|------------|
D|------------|------------|------------|------------|------------|
     This is my harmony      I\'m in your heart again
    This is the place to live  where I\'m alone again      This is my...

e|------------|------------|------------|------------|
B|---(5)(6)(8)|---(5)(6)(8)|---(5)(6)(8)|---(5)(6)(8)|
G|------------|------------|------------|------------|
D|-0----------|------------|------------|------------|   (x2)
A|-0----------|------------|------------|------------|
D|-0----------|------------|------------|------------|
   hamony   I\'m here       I lay again      This is the... 
   prayer to give   I\'m all alone again     This is my... 

e|------------|------------|------------|------------|
B|---(5)(6)(8)|---(5)(6)(8)|---(5)(6)(8)|---(5)(6)(8)|
G|------------|------------|------------|------------|
D|-0----------|-7----------|-8----------|-10---------|   (x8)
A|-0----------|-7----------|-8----------|-10---------|
D|-0----------|-7----------|-8----------|-10---------|
   hamony   I\'m here       I lay again      This is the... 
   prayer to give   I\'m all alone again     This is my... 
   hamony   I\'m here       I lay again      This is the... 
   prayer to give   I\'m all alone again     This is my armony...


Coda

e|----------|------------|----------|-------------|
B|----------|--------8---|----------|-------------|
G|-7-10-9-7-|-9-10-9-x-7-|-7-10-9-7-|-9-10-9-10-7-|
D|-0--0-0-0-|-0--0-0-0-0-|-0--0-0-0-|-0--0-0--0-0-|   (x2)
A|----------|------------|----------|-------------|
D|----------|------------|----------|-------------|
 |
e|-----------------|-----------------|-----------------|-----------------|
B|-----------------|-----------------|-----------------|-----------------|
G|-----------------|-----------------|-----------------|-----------------|
D|---------------0-|---------------2-|---------------3-|---------------2-|  (x2)
A|-0-0-0-0-0-0-0-0-|-2-2-2-2-2-2-2-2-|-3-3-3-3-3-3-3-3-|-2-2-2-2-2-2-2-2-|
D|-0-0-0-0-0-0-0-0-|-2-2-2-2-2-2-2-2-|-3-3-3-3-3-3-3-3-|-2-2-2-2-2-2-2-2-|
   x x x x x x x     x x x x x x x     x x x x x x x     x x x x x x x

e|----------|------------|----------|-------------|
B|----------|--------8---|----------|-------------|
G|-7-10-9-7-|-9-10-9-x-7-|-7-10-9-7-|-9-10-9-10-7-|
D|-0--0-0-0-|-0--0-0-0-0-|-0--0-0-0-|-0--0-0--0-0-|   (x2)
A|----------|------------|----------|-------------|
D|----------|------------|----------|-------------|
 |
e|----------|
B|----------|
G|----------|
D|-0--------| only the 1st time
A|-0--------|
D|-0--------|

e|---------|---------|---------|-------------|
B|---------|---------|---------|-------------|
G|-7~------|---------|---------|-------------|
D|-0~------|---------|---------|-------------|
A|---------|---------|---------|-------------|
D|---------|---------|---------|-------------|
 |
e|---------|---------|---------|-------------|
B|---5-6-8-|---5-6-8-|---5-6-8-|---5---8---6-|
G|---------|---------|---------|-------------|
D|---------|---------|---------|-------------|
A|---------|---------|---------|-------------|
D|---------|---------|---------|-------------|
Comments