Lacuna Coil - Prophet Said Chords & Tabs

 

Prophet Said Chords & Tabs

Lacuna Coil Chords & Tabs

Version: 1 Type: Bass Tab 0 ratings
1 star 2 stars 3 stars 4 stars 5 stars
comments

Prophet Said Bass Tab

Band- Lacuna Coil
Song- The Prophet Said

Intro:
|-------------------------------|
|-------------------------------|
|-------------------------------| 2x
|-------------------------------|
|-3-3-3--33-3-3--333-3-3--3-3-3-|

Verse:
|-------------------------------------|
|-------------------------------------|
|-------------------------------------| 4x
|----------00000000-11111111-00000000-|
|-33333333----------------------------|

Chorus
|------------------|
|------------------|
|---1---0----1-----| 2x
|-3--------3-------|
|-----3--------3-1-|
[ Tab from: http://www.guitartabs.cc/tabs/l/lacuna_coil/prophet_said_btab.html ]
Bridge:
|----------------------------------------------------------------|
|---0-0--02-2-2-223-3-3--32-2-2--0-0-0--02-2-2-223-3-3--32-2-2-2-|
|----------------------------------------------------------------|
|----------------------------------------------------------------|
|-3--------------------------------------------------------------|

Verse 4x

Chorus 4x

Interlude:
|--------------|
|--------------|
|--------------| 2x
|--------------|
|-3-(let ring)-|

|----------------|
|----------------|
|----0--01--13-3-| 8x
|----------------|
|-3-3------------|
(That's 1 and 3 not 13!)

Verse 2x

Intro 2x

End:
|--------------|
|--------------|
|--------------|
|--------------|
|-3-(let ring)-|

Comments