Lacuna Coil - Lost Lullaby Chords & Tabs

 

Lost Lullaby Chords & Tabs

Lacuna Coil Chords & Tabs

Version: 1 Type: Bass Tab 0 ratings
1 star 2 stars 3 stars 4 stars 5 stars
comments

Lost Lullaby Bass Tab

Band- Lacuna Coil
Song- Lost Lullaby

G-------------------------|
D-------------------------|
A--0----5-----3----2------|
E-------------------------|
intro

G-----------------------------------------------------------------|
D-----------------------------------------------------------------|
A------5-^7-------------------------------------------5-5-5-5-----|
E--0-----------5----3----2--------0------5----3-------------------|
  verses
[ Tab from: http://www.guitartabs.cc/tabs/l/lacuna_coil/lost_lullaby_btab.html ]
G---------------------------------|-------------------------------|
D---------------------------------|-------------------------------|
A------------------------------2--|-------------------------------|
E--0-0---5---5----3---3-----------|--0----0---5---5----3-3----7---|


G-----------------------------------------------------------------|
D------------7-----5---4----0--------7-----5----4----5------------|
------------------------------------------------------------------|
E-0------------------------------------------------------------0--|

break starting @ 3:04
Comments