Lacuna Coil - Humane Chords & Tabs

 

Humane Chords & Tabs

Lacuna Coil Chords & Tabs

Version: 1 Type: Bass Tab 0 ratings
1 star 2 stars 3 stars 4 stars 5 stars
comments

Humane Bass Tab

G-----------------------|
D-----------------------|
A------------1----------|
E--3--------------------|
B-------3--------1------|
intro and verses riff

G----------------------|-----------------------------|
D----------------------|-----------------------------|
A----------------------|-------------3---1---3-------|
E-1-------------------|----1-------------------------|
B------1----4----4---|--------1----------------------|
break@ 1:19

G--------------------------|
D--------------------------|
A--------------------------|
E--------------0----1------|
B---1----3-----------------|
walkup #1@1:36
[ Tab from: http://www.guitartabs.cc/tabs/l/lacuna_coil/humane_btab.html ]
G------------------------------------------------------------------------|
D------------------------------------------------------------------------|
A--5---5-5-----5-5----5-5---5---------------------3----3-3---3-----------|
E-------------------------------------6-----6-6--6-----------------------|
B------------------------------------------------------------------------|
@2:42 start the bridge with this
G----------------------------------------------------------------------|
D----------------------------------------------------------------------|
A--6---6-6---6-6---6-6---6-------------------5--5--5-5-----------------|
E-----------------------------------6--6-6--6------------------3-------|
B----------------------------------------------------------------------|
and then continue with this

G-------------------------------------------------------------------|
D-------------------------------------------------------------------|
A-------------------------------------------------------------------|
E--3----5----6----8-------------------------------------------------|
B-------------------------------------------------------------------|
walkup#2 starts@ 3:14, play this 2 times and then go back
to walkup#1, play it 5 times and then on the 6th time play:
G----------------------------|
D----------------------------|
A----------------------------|
E-----------0---1------3-----|
B--1---3---------------------|

song order:
intro/verse riff  X10
the 1:19 riff X2
walkup#1 X4
intro/verse riff X2
1:19 riff X2
walkup#1 X4
2:42 riff X1
walk up#2 X2
walkup#1 X4
end
Comments